Song: Swing Swing
Artist: All-american Rejects
Album: All-american Rejects

This was sort of hard to figure out only because there were lots of gaps
to fill in. It wasn't just a consistant intro, chorus, ending....  Just
play the whole song with HEAVY DISTORTION throughout the song and it
should sound really good. Have Fun!

Intro:
e----------------------------------------------------------------------
b----------------------------------------------------------------------
g----------------------------------------------------------------------
d-6-6--6---6-6--6---6-6--6---6-6--6---6-6--6---6-6--6---6-6--6---6-6--6
a-6-6--6---6-6--6---6-6--6---6-6--6---6-6--6---6-6--6---6-6--6---6-6--6
E-4-4--4---4-4—-4---4-4—-4---4-4—-4---4-4—-4---4-4—-4---4-4—-4---4-4—-4


Chorus:
e----------------------------------------------------------------------
b----------------------------------------------------------------------
g-------------------7-7-7-7-7-7-7-7---------------------5-5-5-5-5-5-5-5
d-5-5-5-5-5-5-5-5---7-7-7-7-7-7-7-7---2-2-2-2-2-2-2-2---5-5-5-5-5-5-5-5
a-5-5-5-5-5-5-5-5---5-5-5-5-5-5-5-5---2-2-2-2-2-2-2-2---3-3-3-3-3-3-3-3
E-3-3-3-3-3-3-3-3---------------------0-0-0-0-0-0-0-0------------------


Verse:
e----------------------------------------------------------------------
b----------------------------------------------------------------------
g----------------------------------------------------------------------
d-----5-5--5-----5-5--5-----5-5--5-----10-10--10-----------------------
a-----5-5--5-----5-5--5-----5-5--5-----10-10--10-----------------------
E-----3-3--3-----2-2--2-----0-0--0-----8--8---8------------------------


Interlude:
e----------------------------------------------------------------------
b----------------------------------------------------------------------
g-------------------------------------------------------5-5-5-5-5-5-5-5
d-5-5-5-5-5-5-5-5---5-5-5-5-5-5-5-5---2-2-2-2-2-2-2-2---5-5-5-5-5-5-5-5
a-5-5-5-5-5-5-5-5---5-5-5-5-5-5-5-5---2-2-2-2-2-2-2-2---3-3-3-3-3-3-3-3
E-3-3-3-3-3-3-3-3---3-3-3-3-3-3-3-3---0-0-0-0-0-0-0-0------------------

e---------------------
b---------------------
g--hold------hold-----
d---10--------10------
a---10--------10------
E---9---------8-------
   I'll find someone new


Solo:
e--------------------------------------15------14-12--------------------
b8/15-15-15-15-15-15-13-12--12-12-13--------12------12-12/13------------
g-----------------------------------12----------------------------------
d-----------------------------------------------------------------------
a-----------------------------------------------------------------------
E-----------------------------------------------------------------------

e----------------------------------------15-----------------------------
b-15-15-15-15-15-15--13-12--13-12--13-----------12----------------------
g-------------------------------------12------12---11-12-14-------------
d-----------------------------------------------------------------------
a-----------------------------------------------------------------------
E-----------------------------------------------------------------------

Outro:
e----------------------------------------------------------------------
b----------------------------------------------------------------------
g-9-9--7-7--HOLD------------HOLD----------------------9-9--7-7---------
d-9-9--7-7---9---------------10-----------------------9-9--7-7---------
a-7-7--5-5---9---------------10-----------------------7-7--5-5---------
E------------7---------------8-----------------------------------------
  Bury me  you thought your problems were gone        Carry  me

e----------------------------------------------------------------------
b----------------------------------------------------------------------
g----------------------------------------------------------------------
d---10-10-10-10-10-10-10-10-10-10-10-10-10-10-10-10--------------------
a---10-10-10-10-10-10-10-10-10-10-10-10-10-10-10-10--------------------
E---8--8--8--8--8--8--8--8--8--8--8--8--8--8--8--8---------------------
       Away     Away     Away...................


Intro(x1)
Chorus(x2)
Verse(x2)
Interlude(x2)
Chorus(x2)
Verse(x2)
Interlude(x2)
Chorus(x2)
Solo(x1)
Outro(x1)
Chorus(x6): as you fade out

PEACE!
-WING-


Текст, аккорды и табулатура для песни "Swing Swing", исполняет "All-american Rejects".
Используемые в песне аккорды можно найти в разделе Как брать аккорды. Аккорды для шестиструнной гитары. Другие песни можно найти на нашем сайте, воспользовавшись алфавитным указателем вверху страницы.


 
Ошибка в тексте? Выделите ошибку и нажмите Ctrl+Enter