we've had enough - alkaline trio

Tabbed by:jake harding 
Email: [email protected] 

Tuning: normal
  intro
e|---------------------------------------------------------------------------
B|---------------------------------------------------------------------------
G|----------------999999----------------777777----------------666666---------
D|-44-22-44-22-44-999999-44-22-44-22-44-777777-44-22-44-22-44-666666---------
A|-44-22-44-22-44-777777-44-22-44-22-44-555555-44-22-44-22-44-444444---------
E|-22-00-22-00-22--------22-00-22-00-22--------22-00-22-00-22----------------

e|---------------------------------------------------------------------------
B|---------------------------------------------------------------------------
G|---------------------------------------------------------------------------
D|-44-66-77-66-99-77-66-22---------------------------------------------------
A|-44-66-77-66-99-77-66-22---------------------------------------------------
E|-22-44-55-44-77-55-44-00---------------------------------------------------
  verse
e|-------------------------------------------------------------------------
B|-------------------------------------------------------------------------
G|-44-444-444-444-22-44-444-444-444-22-77-777-777-777-22-44-4444-999-888---x2
D|-44-444-444-444-22-44-444-444-444-22-77-777-777-777-22-44-4444-999-888---
A|-22-222-222-222-00-22-222-222-222-00-55-555-555-555-00-22-2222-777-666---
E|-------------------------------------------------------------------------
  verse divider 
e|---------------------------------------------------------------------------
B|----------------666666-----------------------------------------------------
G|----------------666666-----------------------------------------------------
D|-44-22-44-22-44-444444-44-66-77-66-99-77-66-22-----------------------------
A|-44-22-44-22-44--------44-66-77-66-99-77-66-22-----------------------------
E|-22-00-22-00-22--------22-44-55-44-77-55-44-00-----------------------------


e|------------------------------------------------------------------------
B|------------------------------------------------------------------------
G|-44-444-444-444-22-44-444-444-444-22-77-777-777-777-22-44-4444-999-888-- x2
D|-44-444-444-444-22-44-444-444-444-22-77-777-777-777-22-44-4444-999-888--
A|-22-222-222-222-00-22-222-222-222-00-55-555-555-555-00-22-2222-777-666--
E|------------------------------------------------------------------------

  chorus
e|------------------------------------------------------------------------
B|------------------------------------------------------------------------
G|---------------------------77777777------------------------------------- x2
D|-7777777777777777-44444444-77777777-------------------------------------
A|-7777777777777777-44444444-55555555-------------------------------------
E|-5555555555555555-22222222----------------------------------------------
  mini solo
e|---------------------------------------------------------------------------
B|---------------------------------------------------------------------------
G|---------------------------------------------------------------------------
D|---------------------------------------------------------------------------
A|-99-77-99-77-99-7-9b-777-99-77-99-77-99-7-9b-777-9-------------------------
E|---------------------------------------------------------------------------

e|------------------------------------------------------------------------
B|------------------------------------------------------------------------
G|-44-444-444-444-22-44-444-444-444-22-77-777-777-777-22-44-4444-999-888-- x2
D|-44-444-444-444-22-44-444-444-444-22-77-777-777-777-22-44-4444-999-888--
A|-22-222-222-222-00-22-222-222-222-00-55-555-555-555-00-22-2222-777-666--
E|------------------------------------------------------------------------
 pm----------------------------------------------------------------------
   bridge
e|--------------------------------------------------------------------------
B|--------------------------------------------------------------------------
G|---7---9---7-99999999-----------------------------------------------------
D|-7-7-7-9-7-7-99999999-----------------------------------------------------
A|-7-5-7-7-7-5-77777777-----------------------------------------------------
E|-5---5---5----------------------------------------------------------------
  main solo 
e|---------------------------------------------------------------------------
B|---------------------------------------------------------------------------
G|-14-9-6-7------------------------------------------------------------------
D|-14-9-6-7------------------------------------------------------------------
A|-12-7-4-5------------------------------------------------------------------
E|-12-7-4-5------------------------------------------------------------------
   (sorry i didnt have time to write out fully, note 1 16 times.
    note 2 8 times.note 3 3 times. note 4 5 times)
   (use fingers 1st and 4th like barre chord to play,
    its easier)

e|---------------------------------------------------------------------------
B|---------------------------------------------------------------------------
G|---------------------------------------------------------------------------
D|-44-66-77-66-99-77-66-22-4-------------------------------------------------
A|-44-66-77-66-99-77-66-22-4-------------------------------------------------
E|-22-44-55-44-77-55-44-00-2------------------------------------------------- 

| /  slide up
|   slide down
| h  hammer-on
| p  pull-off
| ~  vibrato
| +  harmonic
| x  Mute note


Текст, аккорды и табулатура для песни "Weve Had Enough", исполняет "Alkaline Trio".
Используемые в песне аккорды можно найти в разделе Как брать аккорды. Аккорды для шестиструнной гитары. Другие песни можно найти на нашем сайте, воспользовавшись алфавитным указателем вверху страницы.


 
Ошибка в тексте? Выделите ошибку и нажмите Ctrl+Enter