(intro)
x1
e--------------------------------------------------------------------------
b--------------------------------------------------------------------------
g--------------------------------------------------------------------------
d--------------------------------------------------------------------------
a--------------7-----------------4----------------2------------------------
e--22-00-22-00----22--00--22--00---22--00--22--00---22-44-55-44-77-55-44-00


(VERSE)x2 then you play intro variation then you play verse 2 more times

e-----------------------------------------------------------------------
b-----------------------------------------------------------------------
g-------------------------------------------------------------------12-11
d--------------------------------------------------------------------x-x
a--44--444-444-44-222--44--444-444-44-222-44-444-444-44-22-55 555-5-10-9 
e--22--222-222-22-000--22--222-222-22-000-55-555-555-55-00-77-777-7-----

(intro variation)x1

e-----------------------------------------------------------------------
b-----------------------------------------------------------------------
g-----------------------------------------------------------------------
d-----------------------------------------------------------------------
a------------------2----------------------------------------------------
e--22--00--22--00----22--44--55--44--77--55--44--00---------------------

(chorus)x4

e----------------------------------
b----------------------------------
g----------------------------------
d---------------------7777---------
a-----77777777--4444--5555---------
e-----55555555--2222---------------

(bridge/solo)x2

e-----------------------------------------------------------
b-----------------------------------------------------------
g-----------------------------------------------------------
d-----------------------------------------------------------
a--44--22--44--22--44-2-4^54-2--44--33--44--33--44-3--4^54-2
e--22--00--22--00--22-0-2^32-0--22--00--22--00--22-0--2^32-0

(verse 3)x2

e--------------------------------------------------
b--------------------------------------------------
g--------------------------------------------------
d------------------------------12-12-12-12-11-11-11
a--7------------------99999999-xx-xx-xx-xx-x-x-x---
e--5------------------77777777-10-10-10-10-9-9-9---

(final chorus)x2
a--------------------------------------------------
g--------------------------------------------------
d------7---------7---------------------------------
a--7---5----7----5----7---------777777777777777777-
e--5--------5---------5----------------------------

e---------------------------------------------------------------------
b---------------------------------------------------------------------
g--14-14-14-14-14-14-14-14-14-14-14-14-14-14-14-14--99999999-66667777-
d--xx-xx-xx-xx-xx-xx-xx-xx-xx-xx-xx-xx-xx-xx-xx-xx--xxxxxxxx-xxxxxxxx-  x4
a--12-12-12-12-12-12-12-12-12-12-12-12-12-12-12-12--77777777-44445555-
e---------------------------------------------------------------------

e---------------------------------
a---------------------------------
g---------------------------------
d---------------------------------
a------------------------------4--
e--22-44-55-44-77-55-44-00-----2--

order:
intro
verse 1
intro variation
verse 2
chorus
bridge/solo
verse 3
chorus
final chorus


Текст, аккорды и табулатура для песни "Weve Had Enough", исполняет "Alkaline Trio".
Используемые в песне аккорды можно найти в разделе Как брать аккорды. Аккорды для шестиструнной гитары. Другие песни можно найти на нашем сайте, воспользовавшись алфавитным указателем вверху страницы.


 
Ошибка в тексте? Выделите ошибку и нажмите Ctrl+Enter