-------------------------------------------------------------------------------
This Could Be Love (For Fire) – Alkaline Trio
-------------------------------------------------------------------------------

Right just got the new album today and hell yes it’s amazing no less than 
I expected! But I love this song it’s a remake of one that never made it
onto from here to infirmary but still awesome, right it looks bare the tab 
but everything is there correct!!


Intro riff (played at parts trough out the song!)   
e|-----4-4-5-5-4-4--------------------------------|
B|-2-2--------------------------------------------|
G|------------------------------------------------|
D|------------------------------------------------|
A|------------------------------------------------|
E|------------------------------------------------|

Verse chords (played behind the intro and then palm muted during verse
look out for timing)
e|-----------------------------------------------------|
B|-----------------------------------------------------|
G|-66666666-22222222-----------------------------------|
D|-66666666-22222222-44444444--------------------------|
A|-44444444-00000000-44444444--------------------------|
E|-------------------22222222--------------------------|


Chorus (played at end as well)
e|---------------------------------------------------------|
B|---------------------------------------------------------|
G|-9999999999999999----------------------------------------|
D|-9999999999999999-7777777-99999999-----------------------|
A|-7777777777777777-7777777-99999999-----------------------|
E|------------------5555555-77777777-----------------------|
Post chorus
e|-------------------------------------------|
B|-------------------------------------------|
G|-------------------------------------------|
D|-7---9---7---999999999---------------------|
A|-7---9---7---999999999---------------------|
E|-5---7---5---777777777---------------------|

Bridge (palmuted)
e|--------------------------------------------------|
B|--------------------------------------------------|
G|-66666666-----------------------------------------|
D|-66666666-7777777-7777777-------------------------|
A|-44444444-7777777-7777777-------------------------|
E|----------4444444-5555555-------------------------|

Right that’s about it I’m working on more stuff but that’s one of the 
stand out tracks to me off the album and thought I’d get it up here 
nice and quickly!

E-mail – [email protected]

[email protected]==============


Текст, аккорды и табулатура для песни "This Could Be Love", исполняет "Alkaline Trio".
Используемые в песне аккорды можно найти в разделе Как брать аккорды. Аккорды для шестиструнной гитары. Другие песни можно найти на нашем сайте, воспользовавшись алфавитным указателем вверху страницы.


 
Ошибка в тексте? Выделите ошибку и нажмите Ctrl+Enter