Artist - Alkaline Trio
Song - Stupid Kid
Album - From Here to Infirmary
Tabbed by - Peter Blair
Email - [email protected]


Intro: 

-----------------------------------------------------| 
-----------------------------------------------------| 
-4-4-4-4---9-9--8-8--6-6--------------9-9--8-8--6-6--| 
-4-4-4-4---x-x--x-x--x-x----6-6-6-6---x-x--x-x--x-x--| 
-2-2-2-2---7-7--6-6--4-4----6-6-6-6---7-7--6-6--4-4--| 
----------------------------4-4-4-4------------------| 

Verse:

------------------------------------------| 
------------------------------------------| 
-4-----------------------4----------------|  X 4
-4-------4-4------2-2----4----------------| 
-2-------4-4------2-2----2----------------| 
---------2-2------0-0---------------------| 

Interlude:

---------------------------------------------------| 
---------------------------------------------------| 
-4-4-4---9-9--8-8--6-6--------------9-9--8-8--6-6--|  X2
-4-4-4---x-x--x-x--x-x----6-6-6-6---x-x--x-x--x-x--| 
-2-2-2---7-7--6-6--4-4----6-6-6-6---7-7--6-6--4-4--| 
--------------------------4-4-4-4------------------| 

Verse 2:

------------------------------------------| 
------------------------------------------| 
-4-----------------------4----------------|  X 4
-4-------4-4------2-2----4----------------| 
-2-------4-4------2-2----2----------------| 
---------2-2------0-0---------------------| 

Chorus:

---------------------------------------| 
---------------------------------------|  
-4--------------------4----------------|  X 2
-4-------6-----4------4----------------| 
-2-------6-----4------2----------------| 
---------4-----2-----------------------| 

---------------------------------------| 
---------------------------------------|  
-4-------------------------------------|  
-4-------6-----4------2----------------| 
-2-------6-----4------2----------------| 
---------4-----2------0----------------| 

Verse 3:

------------------------------------------| 
------------------------------------------| 
-4-----------------------4----------------|  X 4
-4-------4-4------2-2----4----------------| 
-2-------4-4------2-2----2----------------| 
---------2-2------0-0---------------------| 

Chorus:

---------------------------------------| 
---------------------------------------|  
-4--------------------4----------------|  X 2
-4-------6-----4------4----------------| 
-2-------6-----4------2----------------| 
---------4-----2-----------------------| 

---------------------------------------| 
---------------------------------------|  
-4-------------------------------------|  
-4-------6-----4------2----------------| 
-2-------6-----4------2----------------| 
---------4-----2------0----------------|

Interlude:

---------------------------------------------------| 
---------------------------------------------------| 
-4-4-4---9-9--8-8--6-6--------------9-9--8-8--6-6--|  X2
-4-4-4---x-x--x-x--x-x----6-6-6-6---x-x--x-x--x-x--| 
-2-2-2---7-7--6-6--4-4----6-6-6-6---7-7--6-6--4-4--| 
--------------------------4-4-4-4------------------| 

Bridge:

---------------------------| 
---------------------------| 
-4-4-4-4---9-9--8-8--6-6---| 
-4-4-4-4---x-x--x-x--x-x---| 
-2-2-2-2---7-7--6-6--4-4---| 
---------------------------| 

Final Chorus:

---------------------------------------| 
---------------------------------------|  
-4--------------------4----------------|  X 3
-4-------6-----4------4----------------| 
-2-------6-----4------2----------------| 
---------4-----2-----------------------| 




Текст, аккорды и табулатура для песни "Stupid Kid", исполняет "Alkaline Trio".
Используемые в песне аккорды можно найти в разделе Как брать аккорды. Аккорды для шестиструнной гитары. Другие песни можно найти на нашем сайте, воспользовавшись алфавитным указателем вверху страницы.


 
Ошибка в тексте? Выделите ошибку и нажмите Ctrl+Enter