Alkaline Trio - Snake Oil Tanker
Tabbed By: Chris
EMail: [email protected]


This is the intro...I did my best with the timing of it 

G--------------------------------------------------------------------------- 
D--------------------------------------------------------------------------- 
A------------------------------------------------5-------------------------- 
E--5--555--555--55--77--5--555--5------------------------------------------- 

Heres where the lyrics come in (This time you've......) 
Again listen to the song for timing (Do this 2x) 

G--------------------------------------------------------------------------- 
D-----------------------------------44444---77777--------------------------- 
A-----------------55555555-----------------------------5555---7777---------- 
E-22222222------------------------------------------------------------------ 

Heres the tough chorus bass, good luck, do this 2x also 
(I know that you wish I was dead.....) 
G--------------------------------------------------------------------------- 
D------------------------------------------4-------------------------------- 
A----------5-4-5-7-7-5-4-0------------4------------------------------------- 
E-55555555--------------------22222--------------2222--0000----------------- 

Ending part 
G--------------------------------------------------------------------------- 
D--------------------------------------------------------------------------- 
A----5--4--2---------------------------------------------------------------- 
E---------------2--4--5----------------------------------------------------- 

Well good luck, everything is there you just gotta listen to the song to find 
out what goes where. Any questions or comments e-mail me. Thanx!


Текст, аккорды и табулатура для песни "Snake Oil Tanker", исполняет "Alkaline Trio".
Используемые в песне аккорды можно найти в разделе Как брать аккорды. Аккорды для шестиструнной гитары. Другие песни можно найти на нашем сайте, воспользовавшись алфавитным указателем вверху страницы.


 
Ошибка в тексте? Выделите ошибку и нажмите Ctrl+Enter