Intro:
E ----------------------------------------------------------------------------------
B ----------------------------------------------------------------------------------
G -12-12-12-12-12-12--11-11--14-14-14-14--12-12-12-12-------------------------------
D --x--x--x--x--x--x---x--x---x--x--x--x---x--x--x--x--9-9-9-9-9-9-9-9--10-10-10-10-
A -10-10-10-10-10-10---9--9--12-12-12-12--10-10-10-10--9-9-9-9-9-9-9-9--10-10-10-10-
E --0--0--0--0--0--0---0--0---0--0--0--0---0--0--0--0--7-7-7-7-7-7-7-7---8--8--8--8-

E ----------------------------------------------------------------------------------
B ----------------------------------------------------------------------------------
G ----------------------------------------------------------------------------------
D -10-10-10-10----------------------------------------------------------------------
A -10-10-10-10----------------------------------------------------------------------
E --8--8--8--8----------------------------------------------------------------------

Intro part 2:
E-----------------------------------------------------------------------------------
B ----------------------------------------------------------------------------------
G -12-12-12-12-12-12--11-11--14-14-14-14--12-12-12-12-------------------------------
D --x--x--x--x--x--x---x--x---x--x--x--x---x--x--x--x--9-9-9-9-9-9-9-9--10-10-10--9-
A -10-10-10-10-10-10---9--9--12-12-12-12--10-10-10-10--9-9-9-9-9-9-9-9--10-10-10--9-
E --0--0--0--0--0--0---0--0---0--0--0--0---0--0--0--0--7-7-7-7-7-7-7-7---8--8--8--7-

E ----------------------------------------------------------------------------------
B ----------------------------------------------------------------------------------
G ----------------------------------------------------------------------------------
D -9-9------------------------------------------------------------------------------
A -9-9------------------------------------------------------------------------------
E -7-7------------------------------------------------------------------------------

Verse Part 1:
(Palm Muted) 

E ----------------------------------------------------------------------------------
B ----------------------------------------------------------------------------------
G ----------------------------------------------------------------------------------
D ---------------------------------------------------9-9-9-9-9-9-9-9--10-10-10-10-10
A -10-10-10-10-10-10--9-9--12-12-12-12--10-10-10-10--9-9-9-9-9-9-9-9--10-10-10-10-10
E --0--0--0--0--0--0--0-0---0--0--0--0---0--0--0--0--7-7-7-7-7-7-7-7---8--8--8--8--8


E ----------------------------------------------------------------------------------
B ----------------------------------------------------------------------------------
G ----------------------------------------------------------------------------------
D -10-10-10-------------------------------------------------------------------------
A -10-10-10-------------------------------------------------------------------------
E --8--8--8-------------------------------------------------------------------------

Verse part 2:
E ----------------------------------------------------------------------------------
B ----------------------------------------------------------------------------------
G -12-12--12-12--12-12--12-12-------------------------------------------------------
D --x--x---x--x---x--x---x--x--9-9-9-9-9-9-9-9--10-10-10-10-10-10-10-10-------------
A -10-10--10-10--10-10--10-10--9-9-9-9-9-9-9-9--10-10-10-10-10-10-10-10-------------
E -----------------------------7-7-7-7-7-7-7-7---8--8--8--8--8--8--8--8-------------

Chorus:
E ----------------------------------------------------------------------------------
B ----------------------------------------------------------------------------------
G -12-12-12-12-12-12-12-12-12-12-12-12-12-12-12-12-------------------7-7-7-7-7-7-7-7
D -12-12-12-12-12-12-12-12-12-12-12-12-12-12-12-12--9-9-9-9-9-9-9-9--7-7-7-7-7-7-7-7
A -10-10-10-10-10-10-10-10-10-10-10-10-10-10-10-10--9-9-9-9-9-9-9-9--5-5-5-5-5-5-5-5
E --------------------------------------------------7-7-7-7-7-7-7-7-----------------

E ----------------------------------------------------------------------------------
B ----------------------------------------------------------------------------------
G ----12-12-12-12-12-12-12-12-12-12-12-12-12-12-12-12-------------------------------
D -7--12-12-12-12-12-12-12-12-12-12-12-12-12-12-12-12--9-9-9-9-9-9-9-9-9--7-7-7-7-7-
A -7--10-10-10-10-10-10-10-10-10-10-10-10-10-10-10-10--9-9-9-9-9-9-9-9-9--7-7-7-7-7-
E -5---------------------------------------------------7-7-7-7-7-7-7-7-7--5-5-5-5-5-

E ----------------------------------------------------------------------------------
B ----------------------------------------------------------------------------------
G ----------------------------------------------------------------------------------
D -7-7-7----------------------------------------------------------------------------
A -7-7-7----------------------------------------------------------------------------
E -5-5-5----------------------------------------------------------------------------


Or 

E ----------------------------------------------------------------------------------
B ----------------------------------------------------------------------------------
G ---------------------------------------------------7-7-7-7-7-7-7-7----------------
D -5-5-5-5-5-5-5-5-5-5-5-5-5-5-5-5--9-9-9-9-9-9-9-9--7-7-7-7-7-7-7-7----------------
A -5-5-5-5-5-5-5-5-5-5-5-5-5-5-5-5--9-9-9-9-9-9-9-9--5-5-5-5-5-5-5-5----------------
E -3-3-3-3-3-3-3-3-3-3-3-3-3-3-3-3--7-7-7-7-7-7-7-7---------------------------------

E ----------------------------------------------------------------------------------
B ----------------------------------------------------------------------------------
G ----------------------------------9-9-9-9-9-9-9-9--7-7-7-7-7-7-7-7----------------
D -5-5-5-5-5-5-5-5-5-5-5-5-5-5-5-5--9-9-9-9-9-9-9-9--7-7-7-7-7-7-7-7----------------
A -5-5-5-5-5-5-5-5-5-5-5-5-5-5-5-5--7-7-7-7-7-7-7-7--5-5-5-5-5-5-5-5----------------
E -3-3-3-3-3-3-3-3-3-3-3-3-3-3-3-3--------------------------------------------------

Chorus Part 2:
E ----------------------------------------------------------------------------------
B ----------------------------------------------------------------------------------
G ----------------------------------------------------------------------------------
D -10-10-10-10-10-10-10-10-10-10-10-10-10-10-10--12-12-12-12-12-12-12-12-12-12-12-12
A -10-10-10-10-10-10-10-10-10-10-10-10-10-10-10--12-12-12-12-12-12-12-12-12-12-12-12
E --8--8--8--8--8--8--8--8--8--8--8--8--8--8--8--10-10-10-10-10-10-10-10-10-10-10-10

Riff:
E ----------------------------------------------------------------------------------
B ----------------------------------------------------------------------------------
G -12-12-12-12-12-12--11-11--14-14-14-14--12-12-12-12--12-12------------------------
D --x--x--x--x--x--x---x--x---x--x--x--x---x--x--x--x---x--x------------------------
A -10-10-10-10-10-10---9--9--12-12-12-12--10-10-10-10--10-10------------------------
E ----------------------------------------------------------------------------------


Finish on:
E ------------
B ------------
G ------------
D -5----------
A -5----------
E -3----------


Текст, аккорды и табулатура для песни "Private Eye", исполняет "Alkaline Trio".
Используемые в песне аккорды можно найти в разделе Как брать аккорды. Аккорды для шестиструнной гитары. Другие песни можно найти на нашем сайте, воспользовавшись алфавитным указателем вверху страницы.


 
Ошибка в тексте? Выделите ошибку и нажмите Ctrl+Enter