Author/Artist: Alkaline Trio
Title: Nose Over Tail
Album: Sundials E.P./Goddamnit
Transcribed by: Jim Taone
Email: [email protected]

Finally an older song... off the first album and also you 
can find it on the very old out of print Sundials E.P.
Have fun... jim

Intro/Verse
-------------------------------------------------------------|
-------------------------------------------------------------|
-------------------------------------------------------------| 2x
--9-9-9-9-9-------------9-9-9-9-9----------------------------|
--9-9-9-9-9--7-7-7-7-7--9-9-9-9-9--7-7-7-7-7-----------------|
--7-7-7-7-7--7-7-7-7-7--7-7-7-7-7--7-7-7-7-7-----------------|
                                                                              

Chorus:
-------------------------------------------------------------|
---------------------------------------------1-0--0-1--1-0---|
----------------6-6-6-6-6--8-8-8--9-9---2-2--2-2--2-2--2-2---| 
--6-6-6-6-6-6---x-x-x-x-x--x-x-x--x-x---2-2--2-2--2-2--2-2---|
--4-4-4-4-4-4---4-4-4-4-4--6-6-6--7-7---0-0--0-0--0-0--0-0---|
-------------------------------------------------------------|                                                                              

-------------------------------------------------------------|
---------------------------------------------1-0-------------|
----------------6-6-6-6-6--8-8-8--9-9---2-2--2-2-------------|
--6-6-6-6-6-6---x-x-x-x-x--x-x-x--x-x---2-2--2-2--4-4--------|
--4-4-4-4-4-4---4-4-4-4-4--6-6-6--7-7---0-0--0-0--2-2--------|
-------------------------------------------------------------|

Bridge:
---------------------------------------------------------------|
---------------------------------------------------------------|
---------8------------8------------8-8-8-8------------8-8-8-8--| 
--2------x------2-----x---2-2-2-2--x-x-x-x---2-2-2-2--x-x-x-x--|
--2------6------2-----6---2-2-2-2--6-6-6-6---2-2-2-2--6-6-6-6--|
--0-------------0---------0-0-0-0------------0-0-0-0-----------|
                          p.m.---  p.m.---   p.m.---  p.m.---                                             
----------------------------------------------------------------|
----------------------------------------------------------------|
----------------------------------------------------------------| 2x
----------------------------------------------------------------|
---7-7-7-7-7-7----4-4-4-4-4-4-----------------------------------|
---5-5-5-5-5-5----2-2-2-2-2-2-----------------------------------|
                                                                              

Bridge 2
----------------------------------------------------------------|
----------------------------------------------------------------|
--9-9-9-9--8-8--4-4-4-4--6-6-6--8-8-8--9-9-9--------------------| 
--x-x-x-x--x-x--x-x-x-x--x-x-x--x-x-x--x-x-x--------------------|
--7-7-7-7--6-6--2-2-2-2--4-4-4--6-6-6--7-7-7--------------------|
----------------------------------------------------------------|


Outro variation                                                                              
----------------------------------------------------------------|
----------------------------------------------------------------|
--9-9-9-9--8-8--11-11-11--6-6-6--8-8-8--9-9-9-------------------|
--x-x-x-x--x-x--x--x--x---x-x-x--x-x-x--x-x-x-------------------|
--7-7-7-7--6-6--9--9--9---4-4-4--6-6-6--7-7-7-------------------|
----------------------------------------------------------------|

Songflow:
Intro
Verse 2x
Chorus
Bridge2 2x
Intro
Verse 2x
Chorus
Bridge
Bridge2 2x
Outro variation
Bridge2 


Questions, comments, corrections... e-mail me at [email protected]


Текст, аккорды и табулатура для песни "Nose Over Tail", исполняет "Alkaline Trio".
Используемые в песне аккорды можно найти в разделе Как брать аккорды. Аккорды для шестиструнной гитары. Другие песни можно найти на нашем сайте, воспользовавшись алфавитным указателем вверху страницы.


 
Ошибка в тексте? Выделите ошибку и нажмите Ctrl+Enter