Author/Artist: Alkaline Trio
Title: My Standard Break From Life
Album: Hell Yes 7' (Lookout records)
Transcribed by: Jim Taone
Email: [email protected]

This song is originally available on Hell Yes 7' but was
re-released on Sub City's Take Action Tour compilation
c.d....

enjoy, jim


Intro:
--------------------------------------------------|
--------------------------------------------------|
-9-9-9-9-9--9-9-9-9-9--9-9-9-9-9-----9-9-9-9-9----|
-9-9-9-9-9--7-7-7-7-7--9-9-9-9-9--9--9-9-9-9-9----|
-7-7-7-7-7--0-0-0-0-0--7-7-7-7-7--9--7-7-7-7-7----|
----------------------------------7---------------|


Verse:                                                                        
--------------------------------------------|
--------------------------------------------|
--9-9-9-9-----------9-9-9-9-----9-9-9-9-----|
--9-9-9-9--7-7-7-7--9-9-9-9--9--9-9-9-9-----|
--7-7-7-7--7-7-7-7--7-7-7-7--9--7-7-7-7-----|
-----------5-5-5-5-----------7--------------|


Pre-chorus:                                                                         
--------------------------------------------------|
--------------------------------------------------|
--------------------9-9-9-9--9-9-9-9--9-9-9-9-----|
--7-7-7-7--9-9-9-9--9-9-9-9--7-7-7-7--9-9-9-9-----|
--7-7-7-7--9-9-9-9--7-7-7-7--0-0-0-0--7-7-7-7-----|
--5-5-5-5--7-7-7-7--------------------------------|
                                                                              
--------------------------------------------------|
--------------------------------------------------|
-----------8/9-9-9-9------------------------------|
--9-9-9-9--x-x-x-x-x--9-9-9-9-9-9-----------------|
--9-9-9-9--6/7-7-7-7--9-9-9-9-9-9-----------------|
--7-7-7-7-------------7-7-7-7-7-7-----------------|
                                                                              

Chorus:
------------------------------------------------------------|
------------------------------------------------------------|
---------------------------9-9-9-9-9-9----------------------|
-7-7-7-7-7-7--9-9-9-9-9-9--9-9-9-9-9-9--11-11-11-11-11-11---|
-7-7-7-7-7-7--9-9-9-9-9-9--7-7-7-7-7-7--11-11-11-11-11-11---|
-5-5-5-5-5-5--7-7-7-7-7-7---------------9--9--9--9--9--9----|
                                                                              
-----------------------------------------------------|
-----------------------------------------------------|
-9-9-9-9--11-11-11--13-13-13--11-11-11-11---9----8---|
-x-x-x-x--x--x--x---x--x--x---x--x--x--x----x----x---|
-7-7-7-7--9--9--9---11-11-11--9--9--9--9----7----6---|
-----------------------------------------------------|                                                                             

----------------------------------------------|
----------------------------------------------|
-9-9-9-9--------6------9-9-9-9--------6-------|
-9-9-9-9--6--9------9--9-9-9-9--6--9-----9----|
-7-7-7-7---------------7-7-7-7----------------|
----------------------------------------------|
                                                                              
--------------------------------|---------------|
--------------------------------|---------------|
-9-9-9-9--------6---------------|---------------| 
-9-9-9-9--6--9------9--9-9-9-9--|---7-7-7-7-----|  2x
-7-7-7-7---------------9-9-9-9--|---7-7-7-7-----|
-----------------------7-7-7-7--|---5-5-5-5-----|
                                    First time only                                     

Songflow:
Intro
Verse 
Pre-chorus
Verse 2x
Pre-chorus
Chorus
Verse 2x
Pre-chorus
Chorus


Questions, comments, corrections... e-mail me at [email protected]


Текст, аккорды и табулатура для песни "My Standard Break From Life", исполняет "Alkaline Trio".
Используемые в песне аккорды можно найти в разделе Как брать аккорды. Аккорды для шестиструнной гитары. Другие песни можно найти на нашем сайте, воспользовавшись алфавитным указателем вверху страницы.


 
Ошибка в тексте? Выделите ошибку и нажмите Ctrl+Enter