Alkaline Trio - My Friend Peter

Tabbed by: Justin Kraft ([email protected])

Key:
/ = slide up
~ = let ring
x = not played/muted
> = strum
mute = mute :)

Order:
intro, verse 1, bridge, verse 1, chorus, bridge, verse 2, chorus w/ending

Intro

e|--------------
B|--------------
G|-9>-----------
D|-x>--11>--9>--
A|-7>--11>--9>--
E|-----9->--7>--

e|---------------
B|---------------
G|-8/9>----------
D|-x/x>--11>--9>-
A|-6/7>--11>--9>-
E|-------9->--7>-

e|----------------------------------
B|----------------------------------
G|-8/9>--8/9>-----------------------
D|-x/x>--x/x>--11>--9>--7>--9>--7>--
A|-6/7>--6/7>--11>--9>--7>--9>--7>--
E|-------------9->--7>--5>--7>--5>--


Verse 1

e|---------------------------------
B|---------------------------------
G|-9-9-----------------------------
D|-x-x-mute--11-11-------9-9-------
A|-7-7-------11-11-mute--9-9-mute-- 
E|-----------9--9--------7-7------- x2


e|--------------------------
B|--------------------------
G|-9>-----------------------
D|-x>--11>--9>--7>--9>--7>--
A|-7>--11>--9>--7>--9>--7>--
E|-----9->--7>--5>--7>--5>--

Verse 2

e|-----------
B|-----------
G|-9---------
D|-x--11--9--
A|-7--11--9-- 
E|----9---7--

e|-----------
B|-----------
G|-9~~~~~~~~~
D|-x~~~~~~~~~
A|-7~~~~~~~~~ 
E|-----------

e|-------------------------------
B|-------------------------------
G|-9-----------------------------
D|-x--11--9--7>--7-------9-------
A|-7--11--9--7>--7-mute--9-mute--
E|----9---7--5>--5-------7-------


Bridge

e|-------------
B|-------------
G|-9>----------
D|-x>--11>--9>-
A|-7>--11>--9>-
E|-----9->--7>-

e|----------------------
B|----------------------
G|-8/9>--8/9>-----------
D|-x/x>--x/x>--11>--9>--
A|-6/7>--6/7>--11>--9>--
E|-------------9->--7>--

Chorus

e|-------------
B|-------------
G|-------------
D|-2>--7>--9>--
A|-2>--7>--9>--
E|-0>--5>--7>-- x3

e|-----------
B|-----------
G|-----------
D|-7>--9--7--
A|-7>--9--7--
E|-5>--7--5--

then, for the ending (last chorus)..

e|--------------
B|--------------
G|--------------
D|-2~~~-2~------
A|-2~~~-2~mute--
E|-0~~~-0~------



Текст, аккорды и табулатура для песни "My Friend Peter", исполняет "Alkaline Trio".
Используемые в песне аккорды можно найти в разделе Как брать аккорды. Аккорды для шестиструнной гитары. Другие песни можно найти на нашем сайте, воспользовавшись алфавитным указателем вверху страницы.


 
Ошибка в тексте? Выделите ошибку и нажмите Ctrl+Enter