Hey everyone! i doubt im the only one who really anticipated this tab,
well i got bored of waiting, here it is, enjoy 
(please rate me 5-stars!)  -munky

intro:

E----------------------------------------------------------------
B----------------------------------------------------------------
G-----11-11-12-12-11-11-5-------4-4-4-4-4-4-4-4-5-5-5-5-5-5-5-5--
D-2-2--x--x--x--x--x--x-x-------4-4-4-4-4-4-4-4-5-5-5-5-5-5-5-5--
A-2-2--9--9-10-10--9--9-7-------2-2-2-2-2-2-2-2-3-3-3-3-3-3-3-3--   x3
E-0-0------------------------------------------------------------  

E----------------------------------------------------------------
B----------------------------------------------------------------
G-7-7-7-7-7-7-7-7-7-7-7-7-7-7-7-7-5-5-5-5-5-5-5-5-4-4-4-4-4-4-4-4
D-7-7-7-7-7-7-7-7-7-7-7-7-7-7-7-7-5-5-5-5-5-5-5-5-4-4-4-4-4-4-4-4
A-5-5-5-5-5-5-5-5-5-5-5-5-5-5-5-5-3-3-3-3-3-3-3-3-2-2-2-2-2-2-2-2
E----------------------------------------------------------------

verse:

E----------------------------------------------------------------
B----------------------------------------------------------------
G-------------------------------4-4-4-4-4-4-4-4-5-5-5-5-5-5-5-5--
D-2-2---------------------------4-4-4-4-4-4-4-4-5-5-5-5-5-5-5-5--
A-2-2---------------------------2-2-2-2-2-2-2-2-3-3-3-3-3-3-3-3--   x3
E-0-0------------------------------------------------------------

E----------------------------------------------------------------
B----------------------------------------------------------------
G-7-7-7-7-7-7-7-7-7-7-7-7-7-7-7-7-5-5-5-5-5-5-5-5-4-4-4-4-4-4-4-4
D-7-7-7-7-7-7-7-7-7-7-7-7-7-7-7-7-5-5-5-5-5-5-5-5-4-4-4-4-4-4-4-4
A-5-5-5-5-5-5-5-5-5-5-5-5-5-5-5-5-3-3-3-3-3-3-3-3-2-2-2-2-2-2-2-2
E----------------------------------------------------------------

....and repeat verse twice.

chorus:

E----------------------------------------------------------------
B----------------------------------------------------------------
G-5-5-5-5-5-5-5-5-----------------7-7-7-7-7-7-7-7-10-10-10-9-9-9-
D-5-5-5-5-5-5-5-5-5-5-5-5-5-5-5-5-7-7-7-7-7-7-7-7--x--x--x-x-x-x-
A-3-3-3-3-3-3-3-3-5-5-5-5-5-5-5-5-5-5-5-5-5-5-5-5--8--8--8-7-7-7-
E-----------------3-3-3-3-3-3-3-3--------------------------------

E--------|
B--------|
G-7-7----|
D-x-x----|
A-5-5----|   x3
E--------|

E----------------------------------------------------------------
B----------------------------------------------------------------
G-7-7-7-7-7-7-7-7-7-7-7-7-7-7-7-7-5-5-5-5-5-5-5-5-4-4-4-4-4-4-4-4
D-7-7-7-7-7-7-7-7-7-7-7-7-7-7-7-7-5-5-5-5-5-5-5-5-4-4-4-4-4-4-4-4
A-5-5-5-5-5-5-5-5-5-5-5-5-5-5-5-5-3-3-3-3-3-3-3-3-2-2-2-2-2-2-2-2
E----------------------------------------------------------------

intro:

verse 2:

E----------------------------------------------------------------
B----------------------------------------------------------------
G-------------------------------4-----------------5--------------
D-2-----------------------------4-----------------5--------------
A-2-----------------------------2-----------------3--------------   x3
E-0--------------------------------------------------------------

E----------------------------------------------------------------
B----------------------------------------------------------------
G-7-7-7-7-7-7-7-7-7-7-7-7-7-7-7-7-5-5-5-5-5-5-5-5-4-4-4-4-4-4-4-4
D-7-7-7-7-7-7-7-7-7-7-7-7-7-7-7-7-5-5-5-5-5-5-5-5-4-4-4-4-4-4-4-4
A-5-5-5-5-5-5-5-5-5-5-5-5-5-5-5-5-3-3-3-3-3-3-3-3-2-2-2-2-2-2-2-2
E----------------------------------------------------------------

chorus:

bridge:

E----------------------------------------------------------------
B----------------------------------------------------------------
G-11-11-11-12-12-12-11-11-11-12-12-12-4-4-4-4-4-4-4-4-5-5-5-5----
D--x--x--x--x--x--x--x--x--x--x--x--x-4-4-4-4-4-4-4-4-5-5-5-5----
A--9--9--9-10-10-10--9--9--x-10-10-12-2-2-2-2-2-2-2-2-3-3-3-3----
E----------------------------------------------------------------

E----------|
B----------|
G-5-5-5-5--|
D-5-5-5-5--|
A-3-3-3-3--|   x3
E----------|

outro: play chorus without lyrics.

enjoy?  madame me's predicting that your answer will be yes!!!


Текст, аккорды и табулатура для песни "Madame Me", исполняет "Alkaline Trio".
Используемые в песне аккорды можно найти в разделе Как брать аккорды. Аккорды для шестиструнной гитары. Другие песни можно найти на нашем сайте, воспользовавшись алфавитным указателем вверху страницы.


 
Ошибка в тексте? Выделите ошибку и нажмите Ctrl+Enter