Author/Artist: Alkaline Trio
Title: Dead End Road
Album: Living Tomorrow Today
Transcribed by: Jim Taone
Email: [email protected]

Hey hope you enjoy this one... it's off
Living Tomorrow Today A Benefit For Ty Cambra
It's a really good comp. c.d.  
This should be a good tab... the timing isn't exact...
(as usual) enjoy...


Intro
------------------------------------------------------------------------------
------------------------------------------------------------------------------
------------------9-9-9-9-9-9---------------------9-9-9-9-9-9-----------------
------------------6-6-6-6-7-7---------------------7-7-7-7-7-7-----------------
-10-10-10-10-9-9----------------10-10-10-10-9-9---0-0-0-0-0-0-----------------
-7--7--7--7--7-7----------------7--7--7--7--7-7-------------------------------

------------------------------------------------------------------------------
------------------------------------------------------------------------------
------------------9-9-9-9-9-9---------------------9-9-9-9-9-9-----------------
------------------6-6-6-6-7-7---------------------7-7-7-7-7-7-----------------
-10-10-10-10-9-9----------------10-10-10-10-9-9---0-0-0-0-0-0-----------------
-7--7--7--7--7-7----------------7--7--7--7--7-7-------------------------------


------------------------------------------------------------------------------
------------------------------------------------------------------------------
-12-12-12--11-11-11--9-9-9--7-------------------------------------------------
-12-12-12--11-11-11--9-9-9--7-------------------------------------------------
-10-10-10--9--9--9---7-7-7--5-------------------------------------------------
------------------------------------------------------------------------------
                                                                              

Verse
------------------------------------------------------------------------------
------------------------------------------------------------------------------
-7-7-7-----7-7-7--------------------------------------------------------------
-7-7-7-----7-7-7-----5-5-5-----7-7-7------------------------------------------
-5-5-5-----5-5-5-----5-5-5-----7-7-7------------------------------------------
---------------------3-3-3-----5-5-5------------------------------------------
                                                                              

Pre-chorus
------------------------------------------------------------------------------
------------------------------------------------------------------------------
-4-4-4-4---7-7-7-7-------------9-9-9-9----------------------------------------
-4-4-4-4---7-7-7-7---5-5-5-5---9-9-9-9----------------------------------------
-2-2-2-2---5-5-5-5---5-5-5-5---7-7-7-7----------------------------------------
---------------------3-3-3-3--------------------------------------------------
                                                                             
------------------------------------------------------------------------------
------------------------------------------------------------------------------
-4-4-4-4---7-7-7-7------------------------------------------------------------
-4-4-4-4---7-7-7-7---5-5-5-5---7-7-7-7----------------------------------------
-2-2-2-2---5-5-5-5---5-5-5-5---7-7-7-7----------------------------------------
---------------------3-3-3-3---5-5-5-5----------------------------------------
                                                                              

Chorus
------------------------------------------------------------------------------
------------------------------------------------------------------------------
-7-7-7-7-7-7-7----------------------------------------------------------------
-7-7-7-7-7-7-7----7-7-7-7----5-5-5-5------------------------------------------
-5-5-5-5-4-4-4----7-7-7-7----5-5-5-5------------------------------------------
------------------5-5-5-5----3-3-3-3------------------------------------------
                                                                              
Songflow:

Intro
Verse 4x
1st bar of intro
Verse 4x
Pre-chorus 
Chorus 2x
Intro
Verse 2x on 2nd half of singing
Pre-chorus
Chorus 4x

Questions, comments, corrections... e-mail me at [email protected]


Текст, аккорды и табулатура для песни "Dead End Road", исполняет "Alkaline Trio".
Используемые в песне аккорды можно найти в разделе Как брать аккорды. Аккорды для шестиструнной гитары. Другие песни можно найти на нашем сайте, воспользовавшись алфавитным указателем вверху страницы.


 
Ошибка в тексте? Выделите ошибку и нажмите Ctrl+Enter