Armageddon by Alkaline Trio
This is my first full tab but im sure it is 100% right
Enjoy!

Intro

|----------------------------------------------------------- 
|-----------------------------------------------------------
|-9999-66--------9999-66-----9999998----44444444------------
|-7777-44-77-----7777-44-77-------------22222222------------
|-7777-44-77-----7777-44-77-------------22222222------------
|---------55-------------55---------------------------------

Verse 1

|-----------------------------------------------------------
|-----------------------------------------------------------
|-66666666-9999-4444-66666666-9999-4444---------------------
|-44444444-7777-2222-44444444-7777-2222---------------------
|-44444444-7777-2222-44444444-7777-2222---------------------
|-----------------------------------------------------------    x2

Riff before Verse 2

|----------------------------------------------------------- 
|-----------------------------------------------------------
|-9999-66-------9999-66-------------------------------------
|-7777-44-77----7777-44-77----------------------------------
|-7777-44-77----7777-44-77----------------------------------
|---------55------------55----------------------------------

Verse 2

|-----------------------------------------------------------
|-----------------------------------------------------------
|-66666666-9999-4444-66666666-9999-4444---------------------
|-44444444-7777-2222-44444444-7777-2222---------------------
|-44444444-7777-2222-44444444-7777-2222---------------------
|-----------------------------------------------------------    x2

Chorus

|----------------------------------------------------------- 
|-----------------------------------------------------------
|-9999999999999999-66666666-4444----------------------------
|-7777777777777777-44444444-2222-7777-----------------------
|-7777777777777777-44444444-2222-5555-----------------------
|--------------------------------5555-----------------------    x2

Riff before Verse 3

|----------------------------------------------------------- 
|-----------------------------------------------------------
|-9999-66-------9999-66-----9999998---44444444--------------
|-7777-44-77----7777-44-77------------22222222--------------
|-7777-44-77----7777-44-77------------22222222--------------
|---------55------------55----------------------------------




Verse 3

|----------------------------------------------------------------------------
|----------------------------------------------------------------------------
|-6----9----4----66666666-9999-4444----66666666-9999-4444-66666666-9999-4444-
|-6----9----4----44444444-7777-2222----44444444-7777-2222-44444444-7777-2222-
|-4----7----2----44444444-7777-2222----44444444-7777-2222-44444444-7777-2222-
|----------------------------------------------------------------------------

Chorus

|----------------------------------------------------------- 
|-----------------------------------------------------------
|-9999999999999999-66666666-4444----------------------------
|-7777777777777777-44444444-2222-7777-----------------------
|-7777777777777777-44444444-2222-5555-----------------------
|--------------------------------5555-----------------------    x2

Middle Riff

|----------------------------------------------------------- 
|-----------------------------------------------------------
|-6666-4444-------------------------------------------------
|-4444-2222-77777777----------------------------------------
|-4444-2222-55555555----------------------------------------
|-----------55555555----------------------------------------    x4

Chorus

|----------------------------------------------------------- 
|-----------------------------------------------------------
|-9999999999999999-66666666-4444----------------------------
|-7777777777777777-44444444-2222-7777-----------------------
|-7777777777777777-44444444-2222-5555-----------------------
|--------------------------------5555-----------------------     x2

End on

|-------------------- 
|--------------------
|---9----------------
|---9----------------
|---7----------------
|--------------------    

Lyrics

I wrote the words to this song on the back of a photograph
Behind your back it goes
A little something like this is way to big to miss
I got a letter in the mail
The sender failed to let me know where it came from
Opened it up and sure enough there we were
Arm in arm (up in arms) again
I know it's small but my last call's been called
Half an hour ago
I know it's late but do you think you could at least
Fix it for me
Then I'll go I'll go alone I swear
I won't tell a soul
I'll drink this beer and write in fear
Of a song everybody hates
Armageddon, let the light in
Before we say goodbye give us something to believe in
Armageddon, we're not begging
For too much I don't think
Just need a goodbye kiss (one last salute)
Before we sink
We sink


Текст, аккорды и табулатура для песни "Armageddon", исполняет "Alkaline Trio".
Используемые в песне аккорды можно найти в разделе Как брать аккорды. Аккорды для шестиструнной гитары. Другие песни можно найти на нашем сайте, воспользовавшись алфавитным указателем вверху страницы.


 
Ошибка в тексте? Выделите ошибку и нажмите Ctrl+Enter