I-----------------------------------------------I
 I-----------------------------------------------I
 I*---------------------------------------------*I
 I*---------------------------------------------*I
 I-------3----3---3----3------5---3-7-5-3--5-3---I
 I---5-5----5---5----5----3-3--------------------I

  ------3---------1-0--
  --------3------------
  ----2---------0------
  ---------------------
  --0---------0--------
  ---------------------

   Am       G
  Долгие года
  F                             Am
  Я летел туда, где ветер не заметен.
   Am           G
  Плыл по проводам,
  F                             Am
  Идолом плясал под хороводы сплетен.
  Мерил вкривь да вкось,
  Золотой иглой писал на теле руны.
  Жил под стук колес,
  Города менял, как порванные струны.

        Припев.
                 Dm           Am
           Я ухожу туда, где небо
            G               Am
           Веткой бьет в окно.
                    Dm          Am
           Ты проводи вином и хлебом.
           G              Am
                 Все решено.

  Где моя звезда
  Остывает после разговора с домом
  Горе - не беда,
  Время коротать по землям незнакомым.

        Припев.

  И только свет в твоем окне
  Снова утолит меня волной печали
  Дымом по воде
  Отлетит молва, как в осень обвенчали.

                 Dm           Am
           Я ухожу туда, где небо
            G               Am
           Веткой бьет в окно.
                    Dm          Am     G
           Ты проводи вином и хлебом.
                       Dm            Am
           Пойдем со мной туда, где небо
            G          Am
           Манит за собой.
                   Dm           Am
           На посошок вина да хлеба.
           G              Am
                     Я ухожу.    Пойдем со мной.

   Solo.
  -----------------------------------------------------------
  -----------------------------------------------------------
  -----------------------------------------------------------
  --10p7-9p7------7p5-----5----------------------------------
  -----------10p7-----7p5---7---5------------5>(7)>5~--------
  -----------------------------------------------------------

  ---------------------------------------------------------------------
  ---------------------------------------------------------------------
  ------------12>(14)-(14)>12p9----------------------------------------
  --12p10-----------------------12p10~~--10h12p10h12p10h12p10h12>(14~)-
  --------12-----------------------------------------------------------
  ---------------------------------------------------------------------

  --12-----12-12-----12-12-----12-12-----12-12-----12------------------

  --15>(17)---15>(17)---15>(17)---15>(17)---15>(17)---15>(17)-15~~~----

  ---------------------------------------------------------------------
  ---------------------------------------------------------------------
  ---------------------------------------------------------------------
  ---------------------------------------------------------------------

  -----------------------------
  --13---13-13---13---13-------
  --12---12-12---12---12-------
  -------------------------7-7-
  -------------------------7-7-
  -------------------------5-5-


Текст, аккорды и табулатура для песни "Все решено", исполняет "Алиса".
Используемые в песне аккорды можно найти в разделе Как брать аккорды. Аккорды для шестиструнной гитары. Другие песни можно найти на нашем сайте, воспользовавшись алфавитным указателем вверху страницы.


 
Ошибка в тексте? Выделите ошибку и нажмите Ctrl+Enter