Музыка и слова - Константин Кинчев.

Вступление:

e|---------5-3-| 
H|-------------|
G|---0---------| > 7 раз 
D|-4-----4-----|

Проигрыш:

     Hm
e|--/2-----------------------3--5--2-----------------|
H|---------------------------------------------------|


e|---7-----------------------10-9--7-----------7-----|
H|---------------------------------------------------|

     A                       F#
e|-7\5-----------------------2--0--2-----------------|
H|---------------------------------------------3--2--|

     Hm
e|---------------------------------------------------|
H|---0-----------------------------------------------|

    Hm
В театре теней сегодня темно,
Театр сегодня пуст.
    A            F#
Ночные птицы легли на крыло,
 Hm
Выбрав верный курс.

   Стены да, пожалуй, бархат портьер
          A               Hm
   Еще пока помнят свой грим.
    A        F#
   Город накрыла ночь,
     Hm
   Снами задув огни.

Проигрыш:

     Hm                                                                                              
e|--/2---------------------3p0h2------------------5--|
H|---------------------------------------------------|


e|---7-----------------------10----9--7--10----9--10-|
H|---------------------------------------------------|

     A                       F#
e|---5-------------------2p0h2-----------------------|
H|---------------------------------------------------|

     Hm
e|---------------------------------------------------|
H|---3--2--0-----------------------------------------|

Скрип половиц за упокой.
Лишь время сквозь щели сочится луной.
Лиц не видно, виден лишь дым
За искрами папирос.

Квадрат окна дробится в круг,
Чуть-чуть - и вдруг
Слышишь - хранитель хоровода рук
Шепчет слова.

F#
Я повторяю за ним:

"Дух огня,
Начни игру, нам не начать без тебя!
В алых языках ритуального танца
Закружи гостей.

Взойди над прахом ветхих знамен!
Взойди мечом похорон!
Мы здесь, мы ждем сигнал,
Сигнал к началу дня!

     A              F#
       Распиши горизонт
            Hm
       Кострами новых зарниц!

       Вскрой душное небо
       Скальпелем утренних птиц!".

                 A             F#
          И хотя этот восход еще слишком молод.
               G                F#
          А закат уже слишком стар,
          G            A
          Я продолжаю петь,
                    Hm
          Я вижу пожар!

Проигрыш:

Hm | Hm | A F# | Hm  > 4 раза.

               Em            F#
             Театр начинает жить,
              Hm                        F#
             Лишь только свет отбросит новую тень.

               Em            F#
             Театр начинает жить,
                 Hm
             Когда мы поем:
              C
             День, день, день,
              Hm
             День!

Проигрыш:

Hm > 4 раза.

                       Hm
                Но в театре теней сегодня темно...

                В театре теней сегодня темно... > 11 раз.
	
	
	        
Комментарий автора: 1). В альбомном варианте песни строчка \"Лишь только свет отбросит новую тень\" была спета как \"Лишь только свет отбросит первую тень\". 2). Последняя строчка играется и поется с затуханием.

Текст, аккорды и табулатура для песни "Театр теней", исполняет "Алиса".
Используемые в песне аккорды можно найти в разделе Как брать аккорды. Аккорды для шестиструнной гитары. Другие песни можно найти на нашем сайте, воспользовавшись алфавитным указателем вверху страницы.


 
Ошибка в тексте? Выделите ошибку и нажмите Ctrl+Enter