Riff 1.
  ---------------------------------
  ---------------------------------
  ------4-3---3-4-------4-3---0----
  --2---2-2---2-2---2---2-2---0-2--
  --2---------------2-----------2--
  --0---------------0--------------


   Riff 1.
  Печать зверя - клеймо стада
  Девиз бойни: "Всегда рады"

  Козлов кодлы пасет воля
  Шагать стороем - слепых доля
  По чью душу рычит свора
  Закон труса - служить вору

   Riff 2.
  -------------------------------
  -------------------------------
  -------------------------------
  -------------------------------
  -------------------------------
  --0---7---5-7-5-3---5---3-5-3--

  Блажит левый, ревет правый:
  Виват, Мао, Адольф, браво!
  К концу бреда, верней корчи,
  Жутки песни мои к ночи
                                                           Riff 3.
        Припев.                                           ---------------
        C                    Am D           G             ---------------
          Как над миром - заря, неба ясная дочь           ---------------
        C           Am                           Riff 3.  -------0-------
          Успокоит меня лишь только кончится ночь         ---0h2---1--2~-
        C                Am D            G                -0-------------
          адо мной и тобой ветры пенят восход
        C                    Am                            Riff 1.
          е тревожься, не плачь - вот-вот и солнце взойдет.

  о ночь в силе, как пресс зоны
  Прикол гимна душить стоны
  Мораль бойни: "Убей, веря!"
  Иконам слезы, клеймить зверя!

        Припев.

  ---------------------------------
  ---------------------------------
  -----4-3-------------------------
  ---2-------------5-5-5-5-7-7-7-7-
  -----------2-5-4-5-5-5-5-7-7-7-7-
  -0-------0-------3-3-3-3-5-5-5-5-

                         A.H.                                A.H.
 I-------------------------------------------------------------------------I
 I-------------------------------------------------------------------------I
 I*-4-5-4-5-4-5-2-----------------------4-5-4-5-4-5-2---------------------*I
 I*-4-5-4-5-4-5-2-4------"4"------------4-5-4-5-4-5-2-5------"5"----------*I
 I--2-3-2-3-2-3-0-4-------4---5-4-3-2---2-3-2-3-2-3-0-5-------5---5-4-3-2--I
 I----------------2---2-2-2---3-2-1-0-----------------3---3-3-3---3-2-1-0--I


   Riff 1.
  Печать зверя - клеймо стада
  Девиз бойни: "Всегда рады"


Текст, аккорды и табулатура для песни "Печать зверя", исполняет "Алиса".
Используемые в песне аккорды можно найти в разделе Как брать аккорды. Аккорды для шестиструнной гитары. Другие песни можно найти на нашем сайте, воспользовавшись алфавитным указателем вверху страницы.


 
Ошибка в тексте? Выделите ошибку и нажмите Ctrl+Enter