Вступление

            3 раза 	       |			       	
3 ---------------------------9-----------------7-|
4 ---------------------------9-----------------7-|
5 ---------------------------7-----------------9-|
6 -0-0-0-0-0-0-0-0-0-0-0-0-0---|-1-0-0-0-2-0-0-0-3-0-0-0-0---|

            4 раза         |
3 ---------9---------10-10-|
4 ---------9---------10-10-|
5 ---------7---------8--8--|
6 -0-0-0-0---0-0-0-0-------|


Куплет :

3 ---------9---------10-10-|---------9---------10-10-|
4 ---------9---------10-10-|---------9---------10-10-| - rif1
5 ---------7---------8--8--|--------7----------8--8--|
6 -0-0-0-0---0-0-0-0-------|-0-0-0-0---0-0-0-0-------|
           Время поездом в  даааааааааааааааааааль,
           rif1
           Время стрелами в лету.
	   rif1
	   По несжатым полям,
	   rif1
	   По отравленным рекам,

3 ---------9---------10-10-|---------9---------10-10-|
4 ---------7---------8--8--|---------7---------8--8--| - rif2
5 -0-0-0-0---0-0-0-0-------|-0-0-0-0---0-0-0-0-------|
6 ---------------------------------------|
	   По дорогам       кривыыыыыыыыыыыыыыыым,
           rif1
           По лесам, по болотам,

4 ------------------------------------|  - rif3
5 -9-10-10-9-10-10--7----7--7---8---9-|  s - возможность сыграть 
6 -7-8--8--7-8--8---5----5--5---6---7-|  slide-ом (скольжением)
    s       s                     s
   Ооооставляяяяя   кресты, как следы, за собой.

3 ------------------------|-------12--------12s11-|                                 
4 -9-7s8s9-5s6s7--12-12-9-|-12-12-12--12-12-12s11-| rif4 (2 раза)
5 -7-5s6s7-5s6s7--10-10-7-|-10-10-----10-10-------| 
6 ------------------------------------|
    За собой,     за собой    

rif1
Время голубем в рай,
rif1
В ад стволом пистолета.
rif1
По слезам, по глазам,
rif1
По опущенным векам.
rif2
Да по иглам стальным,
rif1
По замкам, по решеткам,
rif3
Оставляя седые виски за собой.
rif4
За собой, за собой
rif4
За собой, за собой


5 ---------3------------7--3--5-------| - rif4
6 -5--3--5---5---5-3--------------5-7-|
   А мы гуляли, пели, шли своей тропой.

5 -9-9-------------------9-9s5-| - rif5                                    
6 -7-7-------------------7-7s3-|
     Мы открывали двери.

5 ---------3------------7--3--5-------|
6 -5--3--5---5---5-3--------------5-7-|
   А мы гуляли, пели, шли своей тропой.

5 ----------9-9------|------10---10-----10-9-| - rif6  
6 ----------7-7------|------8----8------8--7-|
   Мы открывали двери, хоть вход был запрещен
   Мы шли в огонь.

4 -------------------------------------7---------------7-| - rif7
5 -------------------------------------9---------------9-|
6 -0-3-4-5-7-6-5-4-0-3-4-5-7-6-5-4-|-0-0-0-0-0-0-0---0-0-0-0-0-0-0---|
     Знай паскуда вольных                        знай  

(здесь слова по нотам не особо расписаны, сами думайте :-) )

4 -------------------------------------7---------------7-|
5 -------------------------------------9---------------9-|
6 -0-3-4-5-7-6-5-4-0-3-4-5-7-6-5-4-|-0-0-0-0-0-0-0---0-0-0-0-0-0-0---|
     Знай паскуда вольных                        знай

4 ---------------------------------|
5 ---------------------------------|
6 -0-3-4-5-7-6-5-4-0-3-4-5-7-6-5-4-|
     Знай паскуда вольных                                   

4 ---------------7---------------4-4-4|
5 ---------------9---------------2-2-2|
6 -0-0-0-0-0-0-0---0-0-0-0-0-0-0------|
               знай              Паскуда вольных знай


далее играется быстро :

4 -3-4-4-4-4-5-5-5-5-6-6-6-6-7-7-7-7---4--5-6---4-5-6-|
5 -1-2-2-2-2-3-3-3-3-4-4-4-4-5-5-5-5---2--3-4---2-3-4-|
6 ----------------------------------------------------|
                                      паскуда, паскуда

потом какой-то соляк


rif1
Время красным цветком
rif1
Млечным соком по лицам,
rif1
Полной страха луной
rif1
Да по впалым глазницам.
rif2
По стихам про любовь,
rif1
Да по койкам больничным,
rif3
Оставляя на сердце рубцы за собой
rif4
За собой, за собой
rif4
За собой, за собой

rif4
А мы гуляли, пели, шли своей тропой.
rif5
Мы открывали двери.
rif4
А мы гуляли, пели, шли своей тропой.
rif6
Мы открывали двери, хоть вход был запрещен.
Мы шли в огонь!

rif7
Знай паскуда вольных, знай (4 раза)

             3 раза
4 -------------------------------------------------|
5 ---------4-5-----4-3-2-----3-|---------4-5-----4-3-2-----4-5-|
6 ----0-0-----0-0-------0-0----|-----0-0-----0-0-------0-0-----|

          4 раза               2 раза             2 раза
4 -------------------|-5-5-4--5-4--5-4-5-|-7-7-6--7-6--7-6-7-| этот отрывок
5 -2-2-1--2-1--2-1-2-----------------| повторяется
6 -----------------------------------| 3 раза

4 -2--------------------9----5-7---2-5---|
5 -0--------------------7----3-5---0-3---|
6 ---------------------------------------|
    А мы гуляли, пели, шли своей тропой.

 





Текст, аккорды и табулатура для песни "Паскуда", исполняет "Алиса".
Используемые в песне аккорды можно найти в разделе Как брать аккорды. Аккорды для шестиструнной гитары. Другие песни можно найти на нашем сайте, воспользовавшись алфавитным указателем вверху страницы.


 
Ошибка в тексте? Выделите ошибку и нажмите Ctrl+Enter