Em           D                  Em
  На моей земле, видно, так повелось
                D            C           G
  Все не слава богу, все не так, как у всех
   Am        Em         C         G
  То ночами маемся, то засветло пьем
    Am           Em        D      Em
  Стороной взглянуть - и смех и грех  х2

           Am               C          G D Em
           Ой, мама, мама, больно мне...       х2

  На моей земле каждый в правде ослеп.
  Брат на брата прет, сын отца тянет в блуд
  На моей земле вместо колоса серп,
  Вместо солнца дым, вместо воли хомут.    х2

    Припев.                                                        _
      Am                   C                 G       D        Em    |
     -------------------------------------------------------------  |
     -------------------------------------------------------------  |
     -2-------------2--4-5-7------7p5-7p5--------7-------7--------  |
     -2-------------2--4-5-7------7p5-7p5----5-----5-5/4---4---2--  | x2
     -0--------------------------------------------------------2--  |
     ----------------------------------------------------------0--  |
      Ой, мама, мама,     больно мне...                            _|

  Так за веком век, ни кола, ни двора.
  От тюрьмы - сума на стыке эпох.
  В драке не поможем, но случись война
  Даст бог победим, победим даст бог.    х2

        Припев.

    E5         D5        D5     E5(VII)
  А у земли одно имя - Светлая Русь.
     E5(VII)   D5      C5       G5
  В ноги поклонись, назови ее "мать".
   A5(V)        E5(VII) C5       G5
  Мы ж младенцы все у нее на груди
     A5(V)     E5(VII)    D5       E5(VII)
  Сосунки, щенки, нам ли мамку спасать.  х2

        Припев.

  ; Соло на баяне:

    E5       B5  E5       B5  A5            E5   A5           E5
  --7------------7-7------------------------------------------------------
  ------10-8-7-------10-8-7-----7-8--7h8p7-----------------------7--8--10-
  ----------------------------9------------9---------------9--9-----------
  -------------------------------------------9---7--9--10-----------------
  ------------------------------------------------------------------------
  ------------------------------------------------------------------------

    E5           B5       E5       B5  A5      E5  A5            E5
  --7---8-7---------------7-7----------------8-7---12-12------------------
  ----------10-8-7---8-10-----10-8-7-----7-8-------------12-12------------
  -------------------------------------9-----------------------9-9--------
  ------------------------------------------------------------------------
  ------------------------------------------------------------------------
  ------------------------------------------------------------------------


  А на часах уже без пятнадцати три.
  Время, как река, - не воротишь назад.
  А ты хоть раз попробуй оглянись, посмотри,
  Что сумел, что сделал, и кто этому рад.     х2

        Припев.

  ; Соло на баяне:

    E5           B5       E5          B5  A5       E5  A5        E5
  --7---8-7---------------7-7---7------------------7---10-8-7----7--------
  ----------10-8-7---8-10-----10-10-8-7-----7-8-10------------10----------
  ----------------------------------------9-------------------------------
  ------------------------------------------------------------------------
  ------------------------------------------------------------------------
  ------------------------------------------------------------------------

  ; Соло на гитаре:

  ------------------------------------------------------------------------
  ------------------------------------------------------------------------
  -----------------------------16~--14-12-11--11>(12)>11----16~--14-12-11-
  --------------------12h14h16---------------------------12---------------
  -----------12h14h15-----------------------------------------------------
  -/12h14h15--------------------------------------------------------------

  ------------------------------------------------------------------------
  ------------------------------------------------------------------------
  -11>(12)>11-------------------------------------------------------------
  ------------12--/14---14-12------------12-14---14-12--------------------
  ----------------------------14---12h14---------------14-----------------
  ------------------------------------------------------------------------

          w/bar
  -------------------------------------------------15>(17)-15>(17)-(17)---
  --15>(17)~~~--(17)>15p12------------------------------------------------
  -------------------------14-14>(16)>14-12-------------------------------
  ------------------------------------------------------------------------
  ------------------------------------------------------------------------
  ------------------------------------------------------------------------

  -(17)>15p12-------------------------------------------------------------
  ------------15p12-15>(17)-(17)>15--15>(17)~~~--(17)>15p12---------------
  ----------------------------------------------------------14-14>(16)>14-
  ------------------------------------------------------------------------
  ------------------------------------------------------------------------
  ------------------------------------------------------------------------

  -----------------------------------------
  ---------------12--13--12h13p12-----17~--
  -12~~--12--14-------------------14-------
  -----------------------------------------
  -----------------------------------------
  -----------------------------------------




Текст, аккорды и табулатура для песни "Мама", исполняет "Алиса".
Используемые в песне аккорды можно найти в разделе Как брать аккорды. Аккорды для шестиструнной гитары. Другие песни можно найти на нашем сайте, воспользовавшись алфавитным указателем вверху страницы.


 
Ошибка в тексте? Выделите ошибку и нажмите Ctrl+Enter