Музыка и слова - Константин Кинчев.

Вступление (сыграть дважды):

   Am              G                               Am
e|-------0-------------------------------------0------------------|
H|-------------1---3---------------3-----3---------1-----0--------|
G|-2-----------------------------------------------------------2--|
D|----------------------------------------------------------------|

   F               G               Am
e|----------------------------------------------------------------|
H|-1---------------0----------------------------------------------|
G|-------2---------------0-------0-2------------------------------|
D|-------------3---------------2----------------------------------|

  Am
Благослови на войну,
 Em
Дом сохрани и спаси.
 F
Так собирались в поход
 С             G
Ратные люди Руси.

Так, от начала времен,
Солдату дана благодать,
С Богом надежнее жить,
С Богом легко умирать.

	          F Em
	След звезды
	            Am
	Пылит по дорогам,
	      F    Em
	На душе покой
	          Am
	И тихая грусть.
	     F     Em
	Испокон веков
	            Am
	Граничит с Богом
	F Em             Am
	    Моя Светлая Русь.

Проигрыш 1 (сыграть дважды):

   Am              G                               Am
e|---0------------------------------------------------------------|
H|-------3-1-3-1-----3---1-0-1-0-----3---1-0-1-0-------1-1--------|
G|-2-------------2-0-------------0-0-------------0-0h2------------|

   F               G               Am
e|-3---5-3---5-----3---5-0---------------3---5-----5--------------|
H|---------------------------3---------1--------------------------|
G|---------------------------------2-------------------2-2--------|

Сколько раздоров и смут
Ведала Родина-мать,
Как нас хотели согнуть,
Как нас пытались ломать.

Сколько шакалов да псов
Скалятся с разных сторон
На золото наших хлебов,
На золото наших икон.

	След звезды
	Пылит по дорогам,
	На душе покой
	И тихая грусть.
	Испокон веков
	Граничит с Богом
	F Fm             Am
	    Моя Светлая Русь.

Проигрыш 2:

   Am              Em                                Am
H|----------------------------------------------------------------|
G|----------------------------------------------------------------|
D|-7-----9-----7---5---------------------5-----------5h7---9---10-|
A|-----------------------7-----5---7-----------7------------------|

   F               G               Am
H|----------------------------------------------/5----------------|
G|-----------------------------------------------------5---4p2----|
D|-7-----9-----7---5-----------5---7------------------------------|
A|-----------------------7----------------------------------------|

   Am              Em                                Am
H|----------------------------------------------------------------|
G|----------------------------------------------------------------|
D|-7-----9-----7---5---------------------5-------5---5h7---9---10-|
A|-----------------------7-----5---7-----------7---7--------------|

   F               G               Am
H|----------------------------------------------/5----------------|
G|-----------------------------------------------------5---4p2----|
D|-7-----9-----7---5-----------5---7------------------------------|
A|-----------------------7----------------------------------------|

Что собирали отцы,
Нас научили беречь
Вера родной стороны,
Песня, молитва да меч.

Так повелось от корней,
Ратную службу несут,
Всяк на своем рубеже,
Инок, воин и шут.

	Припев.

Кода = вступление.


Текст, аккорды и табулатура для песни "Инок, воин и шут", исполняет "Алиса".
Используемые в песне аккорды можно найти в разделе Как брать аккорды. Аккорды для шестиструнной гитары. Другие песни можно найти на нашем сайте, воспользовавшись алфавитным указателем вверху страницы.


 
Ошибка в тексте? Выделите ошибку и нажмите Ctrl+Enter