Вступление=проигрыш: 

            Em           G            D                    D
H)-2-0-2-0-2-0---4----------4--4-2-0-2---4--4-2-0-2--2-----------
G)-------------------4-5--------------------------------5-4------
D)------------------------5--------------------------------------

   Em         G
Вечер возник, день отутюжил
   Am             Em
Пыльные складки двора.
   Em          G
Дождь, как и я, ночью по лужам
   Am           D
Будет бродить до утра.

В окна стучать, чтобы кому-то
Стало чуть легче дышать,
Чтобы к утру все по минутам
Городу пересказать.

               Em      G
   От слова к слову лететь,
     Am             D
   Песней растаять в дали.
             Em       G
   Надеждой в солнце согреть –
     D
   Все, что мы могли.

Проигрыш

Город исчез, в дальние дали
Вывели тропы дождя.
В край, где грозу песней считали,
В край, где учили меня,

           Em       G
  Кострами плавить зорю,
    Am              D
  Ветром раскрасить угли,
             Em      G
  Расправить крылья огню –
   D
  Все, что мы могли.

Соло:

E)--------------------------------------------------------------------
H)---------8-10-----------------------------7-8-----------------------
G)-------9------9----------7--------------7-----7----9-7----9-7-------
D)--7-10----------7------9--10-9--------9----------------10-----10-9--
A)------------------9-10----------10-10-----------10------------------
                          

E)7-----------7-----------7-------------------------------------------
H)-8-10-7-8-10-8-10-7-8-10-8-10-7-8-7-----7-8-10-8-7-------8-10-8-----
G)---------------------------------9-7-9-9----------9-7-7-9------9-7--
D)------------------------------------9----------------9------------10
A)--------------------------------------------------------------------
                          

E)7-----------7-----------7-10--7---------7----7----7----7----
H)-8-10-7-8-10-8-10-7-8-10----10-8-10-7-8--8-10-8-10-8-10-8-10
G)---------------------------------------9--------------------

E)10-7-8-10-7-8-10-7-8-10-7-8-10
H)------------------------------
G)------------------------------


Скоро рассвет, сумрак окрашен
Розово - белой каймой,
Луч очертил контуры башен,
Нам возвращаться домой.

  В поступках небо узнать,
  Выйти в проступках в нули,
  К основе силу собрать –
  Все, что мы могли. 

Проигрыш
	
	
	        
Комментарий автора: Вариантов боя может быть масса - кому как больше нравится. Вступление к песне можно сыграть нотами, а вот проигрыши между куплетами удобнее играть аккордами.

Текст, аккорды и табулатура для песни "Дождь и я", исполняет "Алиса".
Используемые в песне аккорды можно найти в разделе Как брать аккорды. Аккорды для шестиструнной гитары. Другие песни можно найти на нашем сайте, воспользовавшись алфавитным указателем вверху страницы.


 
Ошибка в тексте? Выделите ошибку и нажмите Ctrl+Enter