Черная ROCK-n-ROLL мама

Riff 1

e----------------------------------------------------------------|
h----------------------------------------------------------------|
G------------------------------------1/2--------------------1/2--|
D|-2-2--2-2--5-5--5-5--7-7--7-7--5-5--5-5--2-2----^--2------------2-2----^-2-|
A|-0-0--0-0--3-3--3-3--5-5--5-5--3-3--3-3--0-0--0-3--0---0h5p3p0--0-0--0-3-0-|
E----------------------------------------------------------------|
Riff 2

e-----------------------------------------------------------------|
h-----------------------------------------------------------------|
G------------------------------------1/2--------------------1/2---|
D|-2-2--2-2--5-5--5-5--7-7--7-7--5-5--5-5--2-2----^--2------------2-2----^--2-|
A|-0-0--0-0--3-3--3-3--5-5--5-5--3-3--3-3--0-0--0-3--0--0h3p0-----0-0--0-3-0--|
E-------------------------------------------------3---------------|
Riff 3     4 X
e--|
h--|
G--|
D|-9-9-9-9-|-7s9-9-9-9-----|
A|-7-7-7-7-|-5s7-7-7-7-----|
E--|
Riff 4

e-----------------------------------------------|
h-----------------------------------------------|
G-----------------------------------------------|
D--------7-7--9-9--10-10------------------------|
A|-7-7--8-8--10-10---5-5--7-7--8--8---7-7-----7-5-7p5-3-----|
E|-5-5--7-7--8--8---------------------5-5-------------------|
Riff 5

e--------------------------------------|
h--------------------------------------|
G--------------------------------------|
D|-7-7-7-7--7s9-9-9-9--9s10-10-10-10--12-12-12-12--|
A|-5-5-5-5--5s7-7-7-7--7s8--8--8--8---10-10-10-10--|
E--------------------------------------|
Riff 6

e-------------------------------------|
h-------------------------------------|
G-------------------------------------|
D|-2-2-2--5-5-5--7-7-7-7-7-7--7-7-7--5-5-5--2-2---|
A|-0-0-0--3-3-3--5-5-5-5-5-5--5-5-5--3-3-3--0-0---|
E-------------------------------------|

Riff 1 A5 C5 
Мир был бел, белый, как мел, 
D5 C5 |: A5 C5 A5 :| 
Мир хотел сохранить предел. 
Riff 2 A5 C5 
Столбы границ охраняли сон. 
D5 C5 /: A5 C5 A5 :/ 
Все, все чтили закон. 
A5 D5 
Но время пришло, мама сделала шаг 
C5 D5 Riff 3
И устроила страшный бардак. 

Riff 4
Черная ROCK-n-ROLL мама. 

Каждый день мама варит отвар. 
Отборные травы, золотой самовар. 
Подноси стакан, да садись за стол. 
Мама даст тебе понять, что такое РОсК-n-РОЛЛ. 
Смахни сон с век, страх сдай в багаж, 
Хлебнул - и ты уже наш. 

Черная РОК-Н-РОЛЛ мама. 

У нас нет хвостов, у нас нет копыт, 
Но голова от рогов иногда болит. 
Наши жены шалят, мы тоже егозим, 
Пьем все, что горит, даже керосин. 
Полом стал потолок, потолком стал пол. 
Мама называет это - РОК-Н-РОЛЛ. 

Черная РОК-Н-РОЛЛ мама. 

Да, мы все вышли из чрева, 
Черного чрева РОК-Н-РОЛЛ девы. 
Мы танцуем, как умеем, где попало, 
Мы хотим еще больше, нам этого мало. 
Riff 5

Мама, плюнь за нас три раза через левое плечо! 
Спасибо, мама! Ух, горячо! 

Riff 6

Черная РОК-Н-РОЛЛ мама. 


Текст, аккорды и табулатура для песни "Черная рок-н-ролл мама", исполняет "Алиса".
Используемые в песне аккорды можно найти в разделе Как брать аккорды. Аккорды для шестиструнной гитары. Другие песни можно найти на нашем сайте, воспользовавшись алфавитным указателем вверху страницы.


 
Ошибка в тексте? Выделите ошибку и нажмите Ctrl+Enter