Наращивающая обороты альтернативная группа сотворила ремикс Миши Джексона
                                    
^ = upstroke(Не знаю как по нашински)

    PM.......................}        
e-------------------------------------------------------------|
B-------------------------------------------------------------|
G-------------------------------------------------------------|
D-------------------------------------------------------------|
A-------------------------------------------------------------|
E|---0-2-0044--0055--0044-7-0---------------------------------------------|
          ^     ^     ^     ^

e-------------------------------------------------------------|
B-------------------------------------------------------------|
G-------------------------------------------------------------|
D|-----4---66----77----66-9-----------------------------------------------|
A|-----4---66----77----66-9-----------------------------------------------|
E|---0-2-0044--0055--0044-7-0---------------------------------------------|
          ^     ^     ^     ^
   Играется быстро. Самое сложно - попадать в ноту в нужное время, 
надо слушать саму песню.
   
===============================================================================


Текст, аккорды и табулатура для песни "Smooth Criminal", исполняет "Alien Ant Farm".
Используемые в песне аккорды можно найти в разделе Как брать аккорды. Аккорды для шестиструнной гитары. Другие песни можно найти на нашем сайте, воспользовавшись алфавитным указателем вверху страницы.


Слушать онлайн Smooth Criminal


Alien Ant FarmSmooth Criminal на Яндекс.Музыке


 
Ошибка в тексте? Выделите ошибку и нажмите Ctrl+Enter