----------------------------------------------------------------------------
			     ATTITUDE - Alien Ant Farm
----------------------------------------------------------------------------
Tabbed By : Matt
e-mail: [email protected]
I got this tab from watching AAF play this song on their DVD. It's exactly how Tye plays it.
Tuning: Standard BEADGE

INTRO
G|---------------------------------------------------------|
D|---------------------------------------------------------|
A|----7-----9----10------12-------14------10-----9-----5---|
E|---------------------------------------------------------|
B|-5----5-7--7-8----8-10----10-12----12-8----8-7---7-3---3-| x2

After the intro: play the low D on the B string and its octave on the A string randomly 
the same rythm as the intro. let the notes ring.

G|---------------------------|
D|---------------------------|
A|--(5)---(5)---(5)---(5)----|
E|---------------------------|
B|-3---3-3---3-3---3-3---3//-|

VERSE PT 1
G|--------|
D|--------|
A|--------|
E|-7-5-5--|
B|--------| x12

G|----------------------------------------------------------|
D|----------------------------------------------------------|
A|----------------------------------------------------------|
E|-7-5-5-----5--7-5x5-----5-----5--7-5x5-----5--7-5-5-----5-|
B|-------5h7----------5h7---5h7----------5h7----------5h7---|

VERSE PT 2
G|--|----------------------------------------------------------|
D|--|----------------------------------------------------------|
A|54|----------------------------------------------------------|
E|--|-7-5-5-----5--7-5x5-----5-----5--7-5x5-----5--7-5-5-----5-|
B|--|-------5h7----------5h7---5h7----------5h7----------5h7---|

CHORUS
G|----------------------------------------------------------------|
D|---9-----11------12-------12-------14------11-------------------|
A|----------------------------------------------------------------|
E|-7---7-9----9-10----10-10----10-12----12-9----9-15-15-15--15-14-|
B|----------------------------------------------------------------|

G|---------------------------------------------------------|
D|---9-----7------------------14------11-------------------|
A|---------------5-----5-----------------------------------|
E|-7---7-5---5-------------12----12-9----9-15-15-15--15-14-|
B|-------------3---3-3---3---------------------------------|

BREAK
G|---------4*-|
D|---9*-5*----|
A|------------|
E|------------|
B|------------|

BRIDGE: play intro twice, then:
G|------------------------------------------------------------|
D|------------------------------------------------------------|
A|---9-----10------12-------14-------16------11-----9-----4---|
E|------------------------------------------------------------|
B|-7---7-8----8-10----10-12----12-14----14-9----9-7---7-2---2-|

The ending is just variations on the chorus

e mail me with any corrections/comments

| /  slide up
|   slide down
| h  hammer-on
| p  pull-off
| ~  vibrato
| *  harmonic
| x  Mute note
============================================================================


Текст, аккорды и табулатура для песни "Attitude", исполняет "Alien Ant Farm".
Используемые в песне аккорды можно найти в разделе Как брать аккорды. Аккорды для шестиструнной гитары. Другие песни можно найти на нашем сайте, воспользовавшись алфавитным указателем вверху страницы.


Слушать онлайн Attitude


Alien Ant FarmAttitude на Яндекс.Музыке


 
Ошибка в тексте? Выделите ошибку и нажмите Ctrl+Enter