D#-----------------|
A#-----------------|
F#-----------------|
C#-----------------|
G#-----------------|
D#-----------------|


                                                                         
------------------------------------------------|
------------------------------------------------|
--4h6------4h6----4--4-----------|--4h6------4h6----4--4----|
--4--------4------4--5-----------|--4--------4------4--5----|
------------------------------------------------|
------------------------------------------------|


                                                                      
---------------------------------------------|
--------------------5------------------------|
-----------------4-----|--4h6------4h6----4--4-----------|
------------4/5--------|--4--------4------4--5-----------|
---------------------------------------------|
---------------------------------------------|


                                                                            
---------------------------------------------------|
---------------------------------------------------|
--4h6------4h6----4--4-----------------------------|
--4--------4------4--5-------------2---------------|
--------------------------------2-----|--2h-4----2h4---2--2----|
---------------------------2/3--------|--2-------2-----2--3----|


                                                                    
-------------------------------------------|
-------------------------------------------|
-------------------------------------------|
----------------------------------------2--|
------------------|--2h-4----2h4---2--2----------2-----|
------------------|--2-------2-----2--3-----2/3--------|


                                                                     
--------------------------------------------|
--------------------------------------------|
--------------------------------------------|
--------------------------------------------|
--2h-4----2h4---2--2-----------|--2h-4----2h4---2--2----|
--2-------2-----2--3-----------|--2-------2-----2--3----|


                                                                          
------------------------3------------------------|
------------------------3------------------------|
----------0--------|--4------4-4--4-0------|--0--0-0-0-0-0-0--0-0--0--0--|
----------0--------|--4------4-4--4-0------|--0--0-0-0-0-0-0--0-0--0--0--|
-------------------|--2------2-2--2-x------|--x--x-x-x-x-x-x--x-x--x--x--|
------------------------3------|--3--3-3-3-3-3-3--3-3--3--3--|


                                                                              
----------------3-----------------------------3------|
----------------3-----------------------------3------|
--4------4-4--4-0------|--0--0-0-0-0-0-0--0-0--0--0--|--4------4-4--4-0------|
--4------4-4--4-0------|--0--0-0-0-0-0-0--0-0--0--0--|--4------4-4--4-0------|
--2------2-2--2-x------|--x--x-x-x-x-x-x--x-x--x--x--|--2------2-2--2-x------|
----------------3------|--3--3-3-3-3-3-3--3-3--3--3-------3------|


                                                      
----------------------------------3------|
----------------------------------3------|
--0--0-0-0-0-0-0--0-0--0--0--|--4------4-4--4-0------|
--0--0-0-0-0-0-0--0-0--0--0--|--4------4-4--4-0------|
--x--x-x-x-x-x-x--x-x--x--x--|--2------2-2--2-x------|
--3--3-3-3-3-3-3--3-3--3--3-------3------|


                                                                            
---------------------------------------------------|
---------------------------------------------------|
--0--0-0-0-0-0-0--0-0--0--0--|--4h6------4h6----4--4-----------|
--0--0-0-0-0-0-0--0-0--0--0--|--4--------4------4--5-----------|
--x--x-x-x-x-x-x--x-x--x--x------------------------|
--3--3-3-3-3-3-3--3-3--3--3------------------------|


                                                                              
-----------------------------------------------------|
-----------------------------------5-----------------|
--4h6------4h6----4--4----------4-----|--4h6------4h6----4--4----|
--4--------4------4--5-----4/5--------|--4--------4------4--5----|
-----------------------------------------------------|
-----------------------------------------------------|


                                                                      
---------------------------------------------|
---------------------------------------------|
------------------|--4h6------4h6----4--4----------------|
------------------|--4--------4------4--5-------------2--|
---------------------------------------2-----|
----------------------------------2/3--------|


                                                                     
--------------------------------------------|
--------------------------------------------|
--------------------------------------------|
--------------------------------------------|
--2h-4----2h4---2--2-----------|--2h-4----2h4---2--2----|
--2-------2-----2--3-----------|--2-------2-----2--3----|


                                                                    
-------------------------------------------|
-------------------------------------------|
-------------------------------------------|
--------------------2----------------------|
-----------------2-----|--2h-4----2h4---2--2-----------|
------------2/3--------|--2-------2-----2--3-----------|


                                                                     
-------------------------------------3------|
-------------------------------------3------|
------------------------|----------0--------|--4------4-4--4-0------|
------------------------|----------0--------|--4------4-4--4-0------|
--2h-4----2h4---2--2------------|--2------2-2--2-x------|
--2-------2-----2--3-----------------3------|


                                                      
----------------------------------3------|
----------------------------------3------|
--0--0-0-0-0-0-0--0-0--0--0--|--4------4-4--4-0------|
--0--0-0-0-0-0-0--0-0--0--0--|--4------4-4--4-0------|
--x--x-x-x-x-x-x--x-x--x--x--|--2------2-2--2-x------|
--3--3-3-3-3-3-3--3-3--3--3-------3------|


                                                      
----------------------------------3------|
----------------------------------3------|
--0--0-0-0-0-0-0--0-0--0--0--|--4------4-4--4-0------|
--0--0-0-0-0-0-0--0-0--0--0--|--4------4-4--4-0------|
--x--x-x-x-x-x-x--x-x--x--x--|--2------2-2--2-x------|
--3--3-3-3-3-3-3--3-3--3--3-------3------|


                                                      
----------------------------------3------|
----------------------------------3------|
--0--0-0-0-0-0-0--0-0--0--0--|--4------4-4--4-0------|
--0--0-0-0-0-0-0--0-0--0--0--|--4------4-4--4-0------|
--x--x-x-x-x-x-x--x-x--x--x--|--2------2-2--2-x------|
--3--3-3-3-3-3-3--3-3--3--3-------3------|


                                                                              
-----------------------------------------------------------------|
-----------------------------------------------------------------|
--0--0-0-0-0-0-0--0-0--0--0--------------------------------------|
--0--0-0-0-0-0-0--0-0--0--0--------------------------------------|
--x--x-x-x-x-x-x--x-x--x--x--------------------------------------|
--3--3-3-3-3-3-3--3-3--3--3--|--0h-2--2--2--2--0--0--0----2--3----3----3--3--|


                                             
--------------------------------------------|
--------------------------------------------|
--------------------------------------------|
--------------------------------------------|
--------------------------------------------|
--3b---0----0----0--3----0--0----0----0--0--|


                                                
-----------------------------------------------|
-----------------------------------------------|
-----------------------------------------------|
-----------------------------------------------|
-----------------------------------------------|
--0h-2--2--2--2--0--0--0----2--3----3----3--3--|


                                              
---------------------------------------------|
---------------------------------------------|
---------------------------------------------|
---------------------------------------------|
---------------------------------------------|
--3b---0----0--0--0--3----0--0----0----0--0--|


                                                
-----------------------------------------------|
-----------------------------------------------|
-----------------------------------------------|
-----------------------------------------------|
-----------------------------------------------|
--0h-2--2--2--2--0--0--0----2--3----3----3--3--|


                                             
--------------------------------------------|
--------------------------------------------|
--------------------------------------------|
--------------------------------------------|
--------------------------------------------|
--3b---0----0----0--3----0--0----0----0--0--|


                                                
-----------------------------------------------|
-----------------------------------------------|
-----------------------------------------------|
-----------------------------------------------|
-----------------------------------------------|
--0h-2--2--2--2--0--0--0----2--3----3----3--3--|


                                                                      
--------------------------------------------------3------|
--------------------------------------------------3------|
---------------------------------------------|--4------4-4--4-0------|
---------------------------------------------|--4------4-4--4-0------|
---------------------------------------------|--2------2-2--2-x------|
--3b---0----0--0--0--3----0--0----0----0--0-------3------|


                                                      
----------------------------------3------|
----------------------------------3------|
--0--0-0-0-0-0-0--0-0--0--0--|--4------4-4--4-0------|
--0--0-0-0-0-0-0--0-0--0--0--|--4------4-4--4-0------|
--x--x-x-x-x-x-x--x-x--x--x--|--2------2-2--2-x------|
--3--3-3-3-3-3-3--3-3--3--3-------3------|


                                                      
----------------------------------3------|
----------------------------------3------|
--0--0-0-0-0-0-0--0-0--0--0--|--4------4-4--4-0------|
--0--0-0-0-0-0-0--0-0--0--0--|--4------4-4--4-0------|
--x--x-x-x-x-x-x--x-x--x--x--|--2------2-2--2-x------|
--3--3-3-3-3-3-3--3-3--3--3-------3------|


                                                      
----------------------------------3------|
----------------------------------3------|
--0--0-0-0-0-0-0--0-0--0--0--|--4------4-4--4-0------|
--0--0-0-0-0-0-0--0-0--0--0--|--4------4-4--4-0------|
--x--x-x-x-x-x-x--x-x--x--x--|--2------2-2--2-x------|
--3--3-3-3-3-3-3--3-3--3--3-------3------|


                                                           
-----------------------------|--2---2-2--2-2-2--2--2-2-2--|
-----------------------------|--3---3-3--3-3-3--3--3-3-3--|
--0--0-0-0-0-0-0--0-0--0--0--|--2---2-2--2-2-2--2--2-2-2--|
--0--0-0-0-0-0-0--0-0--0--0--|--0---0-0--0-0-0--0--0-0-0--|
--x--x-x-x-x-x-x--x-x--x--x--|--0---0-0--0-0-0--0--0-0-0--|
--3--3-3-3-3-3-3--3-3--3--3-------------------|


                                                                         
------------------------------------------------------------|
------------------------------------------------------------|
------------------------------------------------------------|
------------------------------------------------------------|
--6--6--6--6-6-6--6--6--6--6--6--|--5--5--5--5--5--5--5--5--5--5--5--5--|
--4--4--4--4-4-4--4--4--4--4--4--|--3--3--3--3--3--3--3--3--3--3--3--3--|


                                                                    
--------------------------------------|--2---2-2--2-2-2--2--2-2-2--|
--------------------------------------|--3---3-3--3-3-3--3--3-3-3--|
--------------------------------------|--2---2-2--2-2-2--2--2-2-2--|
--------------------------------------|--0---0-0--0-0-0--0--0-0-0--|
--2--4--4--2-5---0--4--0--2--0--4--0--|--0---0-0--0-0-0--0--0-0-0--|
--0--0--0--0-0-----------------------------------------|


                                                                         
------------------------------------------------------------|
------------------------------------------------------------|
------------------------------------------------------------|
------------------------------------------------------------|
--6--6--6--6-6-6--6--6--6--6--6--|--5--5--5--5--5--5--5--5--5--5--5--5--|
--4--4--4--4-4-4--4--4--4--4--4--|--3--3--3--3--3--3--3--3--3--3--3--3--|


                                                                    
--------------------------------------|--2---2-2--2-2-2--2--2-2-2--|
--------------------------------------|--3---3-3--3-3-3--3--3-3-3--|
--------------------------------------|--2---2-2--2-2-2--2--2-2-2--|
--------------------------------------|--0---0-0--0-0-0--0--0-0-0--|
--2--4--4--2-5---0--4--0--2--0--4--0--|--0---0-0--0-0-0--0--0-0-0--|
--0--0--0--0-0-----------------------------------------|


                                                                         
------------------------------------------------------------|
------------------------------------------------------------|
------------------------------------------------------------|
------------------------------------------------------------|
--6--6--6--6-6-6--6--6--6--6--6--|--5--5--5--5--5--5--5--5--5--5--5--5--|
--4--4--4--4-4-4--4--4--4--4--4--|--3--3--3--3--3--3--3--3--3--3--3--3--|


                                                                    
--------------------------------------|--2---2-2--2-2-2--2--2-2-2--|
--------------------------------------|--3---3-3--3-3-3--3--3-3-3--|
--------------------------------------|--2---2-2--2-2-2--2--2-2-2--|
--------------------------------------|--0---0-0--0-0-0--0--0-0-0--|
--2--4--4--2-5---0--4--0--2--0--4--0--|--0---0-0--0-0-0--0--0-0-0--|
--0--0--0--0-0-----------------------------------------|


                                                                         
------------------------------------------------------------|
------------------------------------------------------------|
------------------------------------------------------------|
------------------------------------------------------------|
--6--6--6--6-6-6--6--6--6--6--6--|--5--5--5--5--5--5--5--5--5--5--5--5--|
--4--4--4--4-4-4--4--4--4--4--4--|--3--3--3--3--3--3--3--3--3--3--3--3--|


                                                            
--------------------------------------|--1--------1--------|
--------------------------------------|--0--------0--------|
--------------------------------------|--2--------2--------|
--------------------------------------|--3--------3--------|
--2--4--4--2-5---0--4--0--2--0--4--0-----------|
--0--0--0--0-0------------------------|--1--------1--------|


                                          
--1--------1--------|--1----------------||
--0--------0--------|--0----------------||
--2--------2--------|--2----------------||
--3--------3--------|--3----------------||
----------------------------||
--1--------1--------|--1----------------||


www.novouralsk-gay.narod.ru


Текст, аккорды и табулатура для песни "Would", исполняет "Alice In Chains".
Используемые в песне аккорды можно найти в разделе Как брать аккорды. Аккорды для шестиструнной гитары. Другие песни можно найти на нашем сайте, воспользовавшись алфавитным указателем вверху страницы.


 
Ошибка в тексте? Выделите ошибку и нажмите Ctrl+Enter