D - tuning

Intro:
e--------0---0-0-0-0--|------0---0-0-0-0-----
B--------0---0-0-0-0--|------0---0-0-0-0-----
G---------------------|----------------------
D----4-4-4---4-4-4-4--|--7-7-7---7-7-7-7-----  (Repeat a couple of times)
A----4-4-4---4-4-4-4--|--7-7-7---7-7-7-7-----
D----4-4-4---4-4-4-4--|--7-7-7---7-7-7-7-----

e----------------------------------------------------------
B----------------------------------------------------------
G---6~~~~~~~~~~~~~~~~~--(6)~~~~~--(6)~~~~~~~~~~~~~~--------
D----------------------------------------------------------
A--------------------------------------------------4--3--2-
D----------------------------------------------------------

e--------------------------------5~~~---------5-----------------------
B-------------------------7~~~~---------5-7-----7------(7)~~~---------
G--------------------------------2~~~---------2-----------------------
D-------4~~~~~----------4---------------2-4-----4------(4)~~~---------
A---------------------------------------------------------------------
D--7-4-----------7~~~~------------------------------------------------


Chorus:
e--7---10---X-X---         ---0-------------------------------
B--7---10---X-X---         ---0----------------4--------------
G-----------------         --------------------4--------------
D--9---12---X-X---         ---4--------4-------4--------------
A--9---12---X-X---         ---4--------4-------2--------------
D--9---12---------         ---4--------4----------------------


Then repeat the first B & D part, then this:

e--------0~~--|------------------|--------0~~---|-----5--(5)~~--------------
B--------0~~--|------------------|--------0~~---|-----5--(5)~~--------------
G-------------|--2---------------|--------3~~---|--2--2--(2)~~--------------
D--2--4--4~~--|--2---------------|--2--4--4~~---|--2--2--(2)~~--------------
A--2--4--4~~--|--0--4~~-3~~-2~~--|--0--4--4~~---|--0--0--(0)~~--------------
D--2--4--4~~--|------------------|-----4--4~~---|---------------------------


Interlude:

e--------------------------------------------------------------------
B--------------------------------------------------------------------
G--4--3--4--4/6---6--4--4/6---3------------4--3--4--4/6--6--6/9------
D--------------------------------4--2--2-----------------------------
A--2--1--2--2/4---4--2--2/4---1--4--2--2---2--1--2--2/6--4--4/7------
D--------------------------------4--2--2-----------------------------

e--------------------------------------------------------------------
B--------------------------------------------------------------------
G--9--9/11--9--11---14--11--9----------------------------------------
D--------------------------------------------------------------------
A--7--7/9---7--9----12--9---7----------------------------------------
D--------------------------------------------------------------------

2nd verse:

e----------------------------------------14-------------------------------
B-----------------17--14---17----(17)------------17~~----14-----14~~------
G---------------------------------------------14---------14---------------
D--4---(4)---------------------------------------------------17-----------
A--4---(4)----------------------------------------------------------------
D--4---(4)----------------------------------------------------------------

e-------------------------------------------------------------------------
B--14----------------------------------------------------------------17~~-
G--14----------------14----------14----------14----16----14-16/18-18------
D------16~~~---14-16----16-14-16----16-14-16----16----16------------------
A-------------------------------------------------------------------------
D-------------------------------------------------------------------------

Outro:
                         1/2           ALL BENDS    1/2
e--X-------------16-17-16--16---14-----------------------------------
B----X------------------------------16-(16)-16-16-16--(16)---14--(14)
G------X-------------------------------------------------------------
D--------4-----------------------------------------------------------
A--------4-----------------------------------------------------------
D--------4-----------------------------------------------------------

and that's it...


Текст, аккорды и табулатура для песни "Rooster", исполняет "Alice In Chains".
Используемые в песне аккорды можно найти в разделе Как брать аккорды. Аккорды для шестиструнной гитары. Другие песни можно найти на нашем сайте, воспользовавшись алфавитным указателем вверху страницы.


 
Ошибка в тексте? Выделите ошибку и нажмите Ctrl+Enter