D#--------------|
A#--------------|
F#--------------|
C#--------------|
G#---|-------2-------3b-----|
D#---|--0-------0-----------|


                                                                     
--------------------------------------------|
--------------------------------------------|
--------------------------------------------|
--------------------------------------------|
-------2-------3b-----|-------2-------3b-----|-------2-------3b-----|
--0-------0-----------|--0-------0-----------|--0-------0-----------|


                                                                     
--------------------------------------------|
--------------------------------------------|
--------------------------------------------|
--------------------------------------------|
-------2-------3b-----|-------2-------3b-----|-------2-------3b-----|
--0-------0-----------|--0-------0-----------|--0-------0-----------|


                                                5x                    
------------------------|--------|
------------------------|--------|
----------------------||*----------------------*||*------------------|
----------------------||*----------------------*||*------------------|
-------2-------3b-----||--------2-------3b------|--------|
--0-------0-----------||---0-------0------------|--------|



                                                                     
--------------------------------------------|
--------------------------------------------|
--------------------------------------------|
--------------------------------------------|
-------2-------3b-----|-------2-------3b-----|-------2-------3b-----|
--0-------0-----------|--0-------0-----------|--0-------0-----------|


                                                5x                    
------------------------|--------|
------------------------|--------|
----------------------||*----------------------*||*------------------|
----------------------||*----------------------*||*------------------|
-------2-------3b-----||--------2-------3b------|--------|
--0-------0-----------||---0-------0------------|--------|


...

                                                                 
----------------------------------------|
----------------------------------------|
----------------------------------------|
----------------------------------------|
------------------|-------2-------3b-----|-------2-------3b-----|
------------------|--0-------0-----------|--0-------0-----------|


                                                                       5x
-----------------------------------||
-----------------------------------||
---------------------------------||*----------------------*||
---------------------------------||*----------------------*||
-------2-------3b-----|-------2-------3b-----||--------2-------3b------||
--0-------0-----------|--0-------0-----------||---0-------0------------||


Текст, аккорды и табулатура для песни "Angry Chair", исполняет "Alice In Chains".
Используемые в песне аккорды можно найти в разделе Как брать аккорды. Аккорды для шестиструнной гитары. Другие песни можно найти на нашем сайте, воспользовавшись алфавитным указателем вверху страницы.


 
Ошибка в тексте? Выделите ошибку и нажмите Ctrl+Enter