tuned down 1 half step
listen for strumming patterns

verse
e-------------------------------|
B-------------------------------|
G---12------14-------11---------| x4
D----x-------x-------0----------|
A---10------12-------9----------|
E-------------------------------|

interlude
e-------------------------------------------------|
B-------------------------------------------------|
G-------------------------------------------------|
D-------5--5----5---5--5--------5--5----5---5--5--|
A-------7--7----7---7--7--------7--7----7---7--7--|
E--0-0--------0---0--------0-0--------0---0-------|

e-------------------------------------------------|
B-------------------------------------------------|
G-------------------------------------------------|
D-------------------------------------------------| x4
A--5r0h10r0h9r0h5r0h12r0h10r0h9h10r9r0--x2--------|
E-------------------------------------------------|

chorus
e----------------------|
B--5----------3--------|
G--4----5-----2--------|
D--2----5-----0--------|
A-------3-----0--------|
E----------------------|

chorus end
e--0-------------------|
B--0-keep strumming----|
G----------------------|
D----------------------|
A----------------------|
E----------------------|

verse x4

bridge

e---------------------------------------------------------------------|
B---------------------------------------------------------------------|
G---------------------------------------------------------------------|
D----------7p5p4p0-7p5p4p0-7p5p4p0------------7p5p4p0-7p5p4p0-7p5p4p0-|
A---------------------------------------------------------------------|
E---------------------------------------------------------------------|
|                                                                     |x4
e---------------------------------------------------------------------|
B---------------------------------------------------------------------|
G---4---4-----------------------------5---5---------------------------|
D---4---4-----------------------------5---5---------------------------|
A---2---2-----------------------------3---3---------------------------|
E---------------------------------------------------------------------|

e-------------------------|
B--8----------------------|
G-------------------------|
D-------------------------|
A-------------------------|
E-------------------------|
|                         | 
e-------------------------|
B-------------------------|
G--5----------------------|
D--5----------------------|
A--3----------------------|
E-------------------------|

chorus x4

outro 
e-------------------------------------------|
B-------------------------------------------|
G--------------------------------------9----|
D--------------------------------------9----|x1
A--5r0h10r0h9r0h5r0h12r0h10r0h9h10r9r0-7----|
E-------------------------------------------|


Текст, аккорды и табулатура для песни "Water Wings", исполняет "Alexisonfire".
Используемые в песне аккорды можно найти в разделе Как брать аккорды. Аккорды для шестиструнной гитары. Другие песни можно найти на нашем сайте, воспользовавшись алфавитным указателем вверху страницы.


 
Ошибка в тексте? Выделите ошибку и нажмите Ctrl+Enter