ALEXISONFIRE - COUNTERPARTS AND NUMBER THEM

  This tab is just about 100% correct, for timing you have to figure it out yourself..just listen to the song
it's really easy. More ALEXISONFIRE tabs coming soon from me, i've almost got the whole album done for both
guitars and bass.

  GUITAR : RHYTHM GUITAR (WADE)
  TUNING (HIGHEST TO LOWEST) : D#,A#,F#,C#,G#,D#
  SYMBOLS : *=PALM MUTE, x=MUTE, /=SLIDE OFF



  INTRO
  |---------------------------|     |-----------------|
  |---------------------------|     |-----------------|
  |---------------------------|x16  |--9~---11~--12~--|
  |------5-----4-----5-----4--|     |--x----x----x----|
  |--0-7---0-5---0-3---0-5----|     |--7~---9~---10~--|
  |---------------------------|     |-----------------|

  VERSE
  |-----------------------------------------------|
  |-----------------------------------------------|
  |--9-9-9-9-9--9-9-9-9-9--9-9-9-9-9--9-9-9-9-9---|x4
  |--x-x-x-x-x--x-x-x-x-x--x-x-x-x-x--x-x-x-x-x---|
  |--7-7-7-7-7--8-8-8-8-8--x-x-x-x-x--x-x-x-x-x---|
  |------------------------8-8-8-8-8--7-7-7-7-7---|
                                                               x3
                                         ______________________|____________
  VERSE CONTINUED                       |                                   |
  |-------------------------------------------|  |--3-2-3--3-2-3--3-3-3-3-3-3-3-3--|
  |-------------------------------------------|  |--0-0-0--0-0-0--0-0-0-0-0-0-0-0--|  4TH TIME
  |--5-5-5-5-5-5-5--5-5--5-5-5-5-5-5--5-5-----|  |--0-0-0--0-0-0--0-0-0-0-0-0-0-0--|_____|____
  |--5-5-5-5-5-5-5--5-5--5-5-5-5-5-5--5-5-2~--|  |---------------------------------|          |
  |--3-3-3-3-3-3-3--3-3--3-3-3-3-3-3--3-3-2~--|  |---------------------------------|          |
  |---------------------------------------0~--|  |---------------------------------|          |
                                                                                              |
                                                                                              |
  VERSE CONTINUED                                                                             |
  |----------------------|                                                                    |
  |----------------------|                                                                    |
  |--5-5-5-5-5-5-5--5-5--|x3                                                                  |
  |--5-5-5-5-5-5-5--5-5--|____________________________________________________________________|
  |--3-3-3-3-3-3-3--3-3--|  
  |----------------------|

                                                      x2
                          ____________________________|________________________________
  CHORUS                 |                                                             |
  |--------------------------------------------------|  |--3-3-3--2-2-2--3-3-3--2-2-2--3-3-3--2-2-2--3-3-3--2-2-2--|
  |--------------------------------------------------|  |--0-0-0--0-0-0--0-0-0--0-0-0--0-0-0--0-0-0--0-0-0--0-0-0--|
  |--------------------------------------------------|  |--0-0-0--0-0-0--0-0-0--0-0-0--0-0-0--0-0-0--0-0-0--0-0-0--|
  |--2-2-2-2-2-2~--2-2-2-2-2~--2~--2-2-2-2-2-2~--2~--|  |----------------------------------------------------------|
  |--2-2-2-2-2-2~--2-2-2-2-2~--2~--2-2-2-2-2-2~--2~--|  |----------------------------------------------------------|
  |--0-0-0-0-0-0~--0-0-0-0-0~--0~--0-0-0-0-0-0~--0~--|  |----------------------------------------------------------|
     * * * * * *   * * * * *   *   * * * * * *   *


  BRIDGE
  |-------------10-10---7---7-7---7-7---7--|  |--7-7-7-7-7--|
  |----------------------------------------|  |--x-x-x-x-x--|
  |--/8-7-7-8-7-------9---9-----9-----9----|  |--9-9-9-9-9--|2ND TIME
  |----------------------------------------|  |-------------|
  |----------------------------------------|  |-------------|
  |----------------------------------------|  |-------------|


  OUTRO
  |-----------------------------------------------------------|
  |-----------------------------------------------------------|
  |--9/-9/--12-12-12/111111/12-12-12/111111-------------------|x2
  |--x/-x/--x--x--x-/x-x-x/-x--x--x-/x-x-x---10/-10/--9/--5/--|
  |--7/-7/--10-10-10/9-9-9/-10-10-10/9-9-9---x/--x/---x/--x/--|
  |------------------------------------------8/--8/---7/--3/--|


  OUTRO CONTINUED
  |----------------------------------------------------------------------------------------------------------------------|
  |----------------------------------------------------------------------------------------------------------------------|
  |----------------------------------------------------------------------------------------------------------------------|
  |17-17-17--16-16-16--17-17-17--19-19-19--17-17-17--16-16-16--17-17-17--16-16-16--10-10-10--16-16-16--17-17-17--17-17-17|
  |x--x--x---x--x--x---x--x--x---x--x--x---x--x--x---x--x--x---x--x--x---x--x--x---x--x--x---x--x--x---x--x--x---x--x--x-|
  |15-15-15--14-14-14--15-15-15--17-17-17--15-15-15--14-14-14--15-15-15--14-14-14--12-12-12--14-14-14--15-15-15--14-14-14|
  
  OUTRO CONTINUED
  |---------------------------------------------------------------------------------------------------------------------|
  |---------------------------------------------------------------------------------------------------------------------|
  |---------------------------------------------------------------------------------------------------------------------|
  |-14-14-14--12-12-12--111111-12-12-12--17-17-17--16-16-16--17-17-17--19-19-19--17-17-17--16-16-16--17-17-17--16-16-16-|
  |-x--x--x---x--x--x---x-x-x--x--x--x---x--x--x---x--x--x---x--x--x---x--x--x---x--x--x---x--x--x---x--x--x---x--x--x--|
  |-12-12-12--10-10-10--9-9-9--10-10-10--15-15-15--14-14-14--15-15-15--17-17-17--15-15-15--14-14-14--15-15-15--14-14-14-|

  OUTRO CONTINUED
  |----------------------------------------------------|
  |----------------------------------------------------|
  |----------------------------------------------------|
  |--10-10-10--16-16-16--17-17-17--16-16-16--14~--12~--|
  |--x--x--x---x--x--x---x--x--x---x--x--x---x~---x~---|
  |--12-12-12--14-14-14--15-15-15--14-14-14--12~--10~--|

  OUTRO CONTINUED
  |-------------------------------|
  |-------------------------------|
  |---------------------------9/--|
  |------5-----4-----5-----4--x/--|
  |--0-7---0-5---0-3---0-5----7/--|
  |-------------------------------|


Текст, аккорды и табулатура для песни "Counterparts And Number Them", исполняет "Alexisonfire".
Используемые в песне аккорды можно найти в разделе Как брать аккорды. Аккорды для шестиструнной гитары. Другие песни можно найти на нашем сайте, воспользовавшись алфавитным указателем вверху страницы.


 
Ошибка в тексте? Выделите ошибку и нажмите Ctrl+Enter