Проигрыш:

    1-----3-2-0-------------------3-2-0-  
    2-----0-0-----3-1-0---3-1-0---0-0--- 
    3---0-------0-------0-------2-------  
    4-----------------------------------    
    5---------3---------------2---------   
    6-0---------------3---------------0- 

куплет играется так:

      Em        C         G        H7      Em
1-----0---------0---------1---------3-2-----0----|
2-----0---------2---------0---------0-0-----0----|
3---0---0-----0---0-----0---0-----2-------0---0--|
4------------------------------------------------|
5-----------3----------2-------------------------|
6--0-----------------------------0-------0-------|

Соло второй гитары:

-3-2-0---------------------2--0-
-------3-1-0--3-0-------4-------
-------------------2-4----------



                   Шалавы

проигрыш-2раза


Em     С        G      H7    Em
   Малолетние шалавы,
   На тусовку собрались,
Em         A          D      
   Мнутся на ногах костлявых
       Hm     
   Все изрядно нажрались.

проигрышь-2раза

   В угол бросили тетрадки,
   Было к вечеру у них,
   Две дешовых шеколадки
   Пять бутылок на троих.
   
проигрыш-2раза

   У подруг заняли шмотак
   И напудрили носы
   А одна из них надела,
   Даже чистые трусы.

Проигрыш-2раза

   А на центре иномарки
   Тут идет вечерний съем
   И подружки завалились,
   Прямо в тачку все в троем.
  
Здесь начинается бой...(вступает вторая гитара)

   И поехали кататься
   Не известно даже с кем
   Девкам главное догнаться
   Остальное без проблем
   
Проигрышь-2раза

   Где-то в загородной бане,
   Телки водку будут жрать.
   На столе стуча ногами.
   Танцы для братвы плясать.
   
проигрыш-2раза

   Вот такая вот прогулка,
   На машине с ветерком
   А к утру косяк задолбим,
   Завтра в школу не пойдем
  
А с этого момента одна гитара играет боем простые аккорды а вторая играет проигрыш...


   Завтра в школу не пойдеоо-оо-о-ом
   Завтра в школу не пойдем
   Завтра в школу не пойдеоо-оо-о-ом
   Завтра в школу не пойдем



Текст, аккорды и табулатура для песни "Шалавы", исполняет "Алексин Андрей".
Используемые в песне аккорды можно найти в разделе Как брать аккорды. Аккорды для шестиструнной гитары. Другие песни можно найти на нашем сайте, воспользовавшись алфавитным указателем вверху страницы.


 
Ошибка в тексте? Выделите ошибку и нажмите Ctrl+Enter