Аккорды играются так (сначала басовый звук, потом удар по 3-м или 4-м (когда первый звук 
на 5-й) нижним струнам):

1----2-|---0-|---2-|---2-|---2-|---0-|---0-|---0-|---0-|
2----3-|---1-|---3-|---3-|---4-|---0-|---0-|---0-|---0-|
3----2-|---2-|---2-|---2-|---2-|---0-|---0-|---0-|---0-|
4--0---|---2-|-----|-----|---4-|---2-|-0---|-----|-----|
5------|-0---|-4---|-3---|-2---|-----|-----|-2---|-4---|
6------|-----|-----|-----|-----|-0---|-----|-----|-----|
   D      Am   D/Db  D/C   H7    Em    Em/D  Em/H Em/Db


1---3-|---3-|---3-|---0-|---2-|---2-|--3---|--3---|--10--|
2---0-|---0-|---3-|---2-|---3-|---2-|--3---|--3---|--11--|
3---0-|---0-|---0-|---2-|---2-|---3-|--4---|--3---|--10--|
4-----|-----|-----|---2-|---4-|---4-|--5---|--5---|------|
5-----|-----|-0---|-0---|-2---|-2---|--5---|--5---|------|
6-3---|-2---|-----|-----|-----|-----|--3---|--3---|------|
  G     G/Gb  G*/A   A   Hm+a  Hm+c# G(III) Gm(III) H*(X)

DAm (2 раза)

 D         Am       D     Am
Сидя на красивом холме,
   D         D/Db            D/C       H7
Я часто вижу сны, и вот, что кажется мне,
     Em           Em/D          Em/H     Em/Db
Что дело не в деньгах, и не в количестве женщин,
         G         G/Gb         G*/A     A
И не в старом фольклере, и не в новой волне.

Но мы идем вслепую в странных местах,
И все, что есть у нас – это радость и страх,
Страх, что мы хуже, чем можем,
И радость того, что все в надежных руках.

           Hm+a    Hm+c#    Hm+a   D
И в каждом сне я никак не могу отказаться
     G      G/Gb      G*/A     A 
И куда-то бегу, но когда я проснусь,
    G(III)   Gm (III)  H*(X)
Я надеюсь ты будешь со мной …


Текст, аккорды и табулатура для песни "Сидя на красивом холме", исполняет "Аквариум".
Используемые в песне аккорды можно найти в разделе Как брать аккорды. Аккорды для шестиструнной гитары. Другие песни можно найти на нашем сайте, воспользовавшись алфавитным указателем вверху страницы.


 
Ошибка в тексте? Выделите ошибку и нажмите Ctrl+Enter