e||-----|------------------------------------|--0---------------------------0-----|
B||-----|--1---0---------------0---1---------|--1---3---1---0---1---1---3-------2-|
G||-----|--2-------2---1---2-----------2-----|--2---------------2-----------------|
D||---2-|--2-------------------------------2-|----------2-------------------------|
A||-----|--0---------------0-----------------|--0---------------0-----------------|
E||-----|----------0-------------------------|------------------------------------|
                                                                 /------------------ До сюда идет вступление,
e||--1---0-----------------------1-|--0-----------------------------|              далее с начала, уже с вокалом
B||--3-------3---1---0---1---3-----|--0---3---1---3---0-------------|
G||--2-----------------------------|--1-----------------------------|
D||--0-----------------------------|------------------------------2-|
A||--------------------------2-----|--------------------------------|
E||--------------------------------|--0---------------0---4---0-----|

e||------------------------------------|--0---------------------------0-----|
B||--1---0---------------0---1---------|--1---3---1---0---1---1---3-------2-|
G||--2-------2---1---2-----------2-----|--2---------------2-----------------|
D||--2-------------------------------2-|----------2-------------------------|
A||--0---------------0-----------------|--0---------------0-----------------|
E||----------0-------------------------|------------------------------------|

e||--1---0-----------------------1-|--0---------------------------3-|
B||--3-------3---1---0---1---3-----|--0---3---1---0-----------------|
G||--2-----------------------------|--1---------------2-------------|
D||--0-----------------------------|--------------------------------|
A||--------------------------2-----|------------------0---3---0-----|
E||--------------------------------|--0-----------------------------|

e||--3-----------3---3---1---0---1---5---1-|--1-----------1---1---0-------0---3-|
B||--2-------2-------3---------------------|--0-------0---------------4---------|
G||--0---2-----------2---------------------|--0---0-----------------------------|
D||------------------0---------------------|------------------------------------|
A||--0-------------------------------------|------------------3-----------------|
E||----------------------------------------|--3---------------------------------|

e||-------------------10---8---7-----------------------|-------------------10---8---7--------------------||
B||--------------------------------10---10-------9-----|--------------------------------10---10---9---10-||
G||------7---9---10--------------------------7-------7-|------7---9---10--------------------------7---7--||
D||--0---------------------------------------9-------9-|--0---------------------------------------9---10-||
A||----------------------------------------------------|----------------------------------------------0--||
E||-------------------------------------0--------------|-------------------------------------0-----------||



Текст, аккорды и табулатура для песни "Город золотой", исполняет "Аквариум".
Используемые в песне аккорды можно найти в разделе Как брать аккорды. Аккорды для шестиструнной гитары. Другие песни можно найти на нашем сайте, воспользовавшись алфавитным указателем вверху страницы.


 
Ошибка в тексте? Выделите ошибку и нажмите Ctrl+Enter