Artist: Air Quake
Title: Untitled
Tabbed by: Robert Hancock

e|--------------------------------------------------|
B|--------------------------------------------------|
G|-------0-------0-------0--------0--------0-------0|
D|----4-------4-------2--------2--------0--------0--|
A|-2-------2-------0--------0-----------------------|
E|-----------------------------------3--------3-----|

e|--------------------------------------------------|
B|--------------------------------------------------|
G|-------0-----2--0---------------------------------| x4
D|--------------------------------------------------|
A|----2---------------------------------------------|
E|-0--------0---------------------------------------|

e|--------------------------------------------------|
B|--------------------------------------------------|
G|-4-------------7----------------------------------| x4
D|-4-(x8)-5-(x8)-7-(x8)-7-(x8)----------------------|
A|-2------5------5------7---------------------------|
E|--------3-------------5---------------------------|

Verse:

e|--------------------------------------------------|
B|--------------------------------------------------|
G|-7-------------4----------------------------------|
D|-7-(x8)-5-(x8)-4-(x8)-5-(x8)----------------------|
A|-5------5------2------5---------------------------|
E|--------3-------------3---------------------------|

Then the intro part again:
After that play the verse again:

Chorus:

e|--------------------------------------------------|
B|--------------------------------------------------|
G|-4-------------7----------------------------------| x4
D|-4-(x8)-5-(x8)-7-(x8)-7-(x8)----------------------|
A|-2------5------5------7---------------------------|
E|--------3-------------5---------------------------|

Play the verse part again:
Then play the chorus:
After the chorus:

e|--------------------------------------------------|
B|--------------------------------------------------|
G|-----7------------7------------4------------------|
D|---7---7-(x2)---7---7-(x2)---4---4-(x2)----5------| x2
A|-5------------4------------2-------------5---5(x2)|
E|---------------------------------------3----------|

This is the part for the bass after the guitar plays its part 2 times.

G|--------------------------------------------------| 
D|--------------------------------------------------|
A|-5------------4-----------------------------------| x2
E|---------------------------2-----------3----------|

Little guitar solo type thing:

e|-10----10----10----10-----9----9----12----12------|
B|----10----10----10----10----10---10----10----10---|
G|--------------------------------------------------| 
D|--------------------------------------------------|
A|--------------------------------------------------|
E|--------------------------------------------------|

e|-10----9----10----12------(end-on)-10-------------|
B|----10---10----10----10------------10-------------|
G|--------------------------------------------------| 
D|--------------------------------------------------|
A|--------------------------------------------------|
E|--------------------------------------------------|

That's about it if there's any mistakes I try and fix them
Remember, Air Quake Rox! And Lifeblind is all right.


Текст, аккорды и табулатура для песни "Untitled", исполняет "Air Quake".
Используемые в песне аккорды можно найти в разделе Как брать аккорды. Аккорды для шестиструнной гитары. Другие песни можно найти на нашем сайте, воспользовавшись алфавитным указателем вверху страницы.


 
Ошибка в тексте? Выделите ошибку и нажмите Ctrl+Enter