Don't Wreck It-The Age Of Electric
Tabbed by Yerp
[email protected] email me with any comments or questions.
Tuning: E A D G

Intro-Play it quietly in the background when the song starts.
G|-------|
D|-------|
A|---0-3-|
E|-3-----|

Riff 1
G|-------------------------|
D|-------------------------|
A|------0000-333-2-3-2-3-2-|
E|-3333--------------------|

Play Riff 1 a bunch of times and the
last time play the intro.

Riff 2-Verse
G|----------------------|
D|----------------------|
A|------0000----5---5-2-|
E|-1111------33---3-----|

Play Riff 2 four times.

G|--------------------|
D|--------------------|
A|-0000-3333-55555555-|
E|--------------------|

Play Riff 3 twice.
Play Riff 2 twice.
Play Riff 3 four times.
Then play Riff 4.

G|-------------------------|
D|------0000-333-2-3-2-3-2-|
A|-3333--------------------|
E|-------------------------|

Last time:
G|-------|
D|---0-3-|
A|-3-----|
E|-------|

Play Riff 1 a bunch.
Play Riff 2 six times.
Play Riff 3 four times.
Play Riff 4 a bunch.
Then play the intro, Riff 1 a bunch and end with the intro.

Then the song slows down from its upbeat tempo 
and the guitar solos while the bass does this:

** Really listen for timing here people! I can't stress that enough! **

G|-------------------------------------------------4-----------
D|-5-0-5-7-5-4-5-4-------------5-0-7-0-5-0-4-5-0-7---7-5-4-5-4-
A|-----------------7---7---7-----------------------------------
E|-------------------0---0---0---------------------------------

G|---------------------------------------------------------4-----------
D|-----------------------5---7-5-0-5-0-7-0-5-0-4-0-5-0-7-0---7-5-4-5-4-
A|-7----7---7---7----7-7---7-------------------------------------------
E|---00---0---0---00---------------------------------------------------

G|----------------------------------------------------------
D|--------------------------5---7---5---4-------------------
A|-7---7-----7---7---7---77---5---5---5---5-77---77-9-10-77-
E|---0-----0---0---0---0-----------------------0------------

G|--------------------------------------------|
D|---------5---7---5---4----------------------|
A|---7---7---5---5---5---5-7---9-10-------7---|
E|-0---0---------------------0------12-10---0-|

Then it fades out and the guitar finishes up.

THE END!!!!!


Текст, аккорды и табулатура для песни "Dont Wreck It", исполняет "Age Of Electric".
Используемые в песне аккорды можно найти в разделе Как брать аккорды. Аккорды для шестиструнной гитары. Другие песни можно найти на нашем сайте, воспользовавшись алфавитным указателем вверху страницы.


 
Ошибка в тексте? Выделите ошибку и нажмите Ctrl+Enter