E------0-----0--0|-0--------------------|-------|
B----------------|-----4--------1-|-------1------1-|-1-3--1-----|-------|
G----------------|----------2----------|----------2-|---0---|
D--2------------------|--2--------------|-2-----|
A---------------------------|-------|
E---------------------------|-------|
  Ах  мой   го-лу-бой дель-тап-лан, стре-лой   прон-за-ет ту-ман, е-го
------------------------------|
--------0--0-------------1----|
0--0-2-------|-0---0--2------------|-2----------------|
---------------2---2---|-2---2-----2---2--|
---------------3---3---|-3------6---------|
------------------------------|
я  у-ва-жа-ю, как бра-та
----0---0---1-|-0---------------------|
--------------|----4------1-|-------1---1--1--|-1--3--1-------|
--------------|-------2-----------2-|----0--------|
-4--------------|--2----------------|-2-------1---|
--------------------------|
--------------------------|
Сво-бо-ден  и  ле-гок по-лет, сам  лет-чик и   сам са-мо-лет, я птич-ка
-----------------|--0----0-----0-----|---0---||---------
-----------0-----|--1----1-----1-----|---1---||---------
--0--0--2-----2-|-0---0--2-----------|-------||.--------
-----------------|-------2-----2-----|-------||.--------
-----------------|0----3-------------|-------||---------
-------------------------|-0-----||---------
В об-ла-ке ро-зо-вой  ва-ты
-------------|---------|0-----------0---1-|-0-----------|--------0-|
-3--3--1-----|---------|----3---3---------1-|-0--------|
-----------3-|2--2--2---------|-----2--2----|----------|
--------------------|----2-----|
--------------------|----------|
--------------------|----------|
Но все же ноч-но-ю  по-рой мне снит-ся  кон-вой и сол-да-ты  О-ставь
-0--0--0--------------------|
----------4----|-1-------1-----1-|-1--3--1---------|----------0-|
-------------2-------|----------2-|----0------0--0-|0--0--2-----|0
----------------------|-2---------------|
----------------------------|
----------------------------|
не жа-лей ни о  чем, ле-тай    по- ка го-ря-чо, по-ка     за по-ле-ты не про-сят
--------||--3---5--------------------------------------
--------|----------------------------------
--0--2-.|----------------------------------
-------.|----------------------------------
--------|----------------------------------
--------|----------------------------------
 пла-ту   //пла-ту
 
Ах мой голубой дельтаплан
Стрелой пронзает туман
Его я уважаю как брата
Свободен и легок полет
Сам летчик и сам самолет
Я птичка в облаке розовой ваты

Но все же ночною порой
Мне снится конвой и солдаты

Оставь не жалей ни о чем
Летай пока горячо
Пока за полеты не просят плату


Текст, аккорды и табулатура для песни "Танго с дельтапланом", исполняет "Агата Кристи".
Используемые в песне аккорды можно найти в разделе Как брать аккорды. Аккорды для шестиструнной гитары. Другие песни можно найти на нашем сайте, воспользовавшись алфавитным указателем вверху страницы.


 
Ошибка в тексте? Выделите ошибку и нажмите Ctrl+Enter