----------------------------------------------------------
		The lost souls - Afi
----------------------------------------------------------

Tabbed By: J.D. Norwood ([email protected])

/ = slide down
 = slide up
			Intro
e|---------------------------------------------------------|
B|---------------------------------------------------------|
G|---------------------------------------------------------|
D|--------7----9--------7-5555---------7----9-77777777-10/-|
A|-7-10-9---10---7-10-9---5555--7-10-9---10---77777777-10/-|
E|------------------------3333----------------55555555-8-/-|
                     P.M. ----           P.M. --------
                     
			Chorus
e|--------------------------------------------------------|
B|--------------------------------------------------------|
G|-7777--10101010-5555-7777-------------------------------|
D|-7777--10101010-5555-7777-88888888-77777777-------------|
A|-5555--8-8-8-8--3333-5555-88888888-77777777-------------|
E|-5555--8-8-8-8--3333-5555-66666666-55555555-------------|

			Verse
e|--------------------------------------------------------|
B|--------------------------------------------------------|
G|-77777777-55555555----------1010101010101010------------|
D|-77777777-55555555-88888888-1010101010101010------------|
A|-55555555-33333333-88888888-8-8-8-8-8-8-8-8-------------|
E|-55555555-33333333-66666666-8-8-8-8-8-8-8-8-------------|

		thing inbetween verse and chorus
e|--------------------------------------------------------|
B|--------------------------------------------------------|
G|-7-9-10-12----------------------------------------------|
D|--------------------------------------------------------|
A|-5-7-8--10----------------------------------------------|
E|--------------------------------------------------------|

			Pre interlude
e|--------------------------------------------------------|
B|--------------------------------------------------------|
G|-7-----14-----------------------------------------------|
D|--------------------------------------------------------|
A|-5-----12-----------------------------------------------|
E|--------------------------------------------------------|

			Interlude part 1
e|------------------13------13-12-12-13----------------|
B|-(-------10-11-13)---10---------------12--13-10---13-|
G|-(9-10-12--------)-----------------------------------|
D|-----------------------------------------------------|
A|-----------------------------------------------------|
E|-----------------------------------------------------|
	Brackets on first time only


e|----10-12-(--13)--|
B|-11-------(10--)--| 
G|------------------|
D|------------------|
A|------------------|
E|------------------|
Brackets on last time only

			Interlude part 2
e|--------------------------------------------------------|
B|--------------------------------------------------------|
G|-(77-99-1010-12121212-7)--------------------------------|
D|------------------------


Текст, аккорды и табулатура для песни "The Lost Souls", исполняет "Afi".
Используемые в песне аккорды можно найти в разделе Как брать аккорды. Аккорды для шестиструнной гитары. Другие песни можно найти на нашем сайте, воспользовавшись алфавитным указателем вверху страницы.


 
Ошибка в тексте? Выделите ошибку и нажмите Ctrl+Enter