Band: AFI
Song: Strength Through Wounding
Album: Black Sails In The Sunset
Guitarist: Jade Errol Puget
Tabbed by: DeathBecomesYou
E-mail question at: [email protected]

This is the song I always play to warm up.
It's great with the harmonics and the p.m.'s.
Anyway, it's 100% right.

*=Harmonic
x=Muted with fret hand
}=Held for long time

Fade in...
e-------|
B-------|
G-5*----|
D-0-----|
A-------|
E-------|

Intro to verse...
e-----------------------|
B-----------------------|
G---(8x)-(8x)-(8x)-(1x)-|
D----7----7----2----9---|
A----7----7----2----9---|
E----5////6----0----7---|

Intro to verse part 2...
e-------------------------12--|
B-----------------------------|
G---(8x)-(8x)-(1x)--7*--------|
D----7----6----2-------9*-----|
A----7----6----2--------------|
E----5----3----0--------------|

Intro to verse part 3...
e----------------------------|
B--(8x)-(8x)-(8x)------------|
G---12---14---13---9/10/9----|
D---xx---xx---xx---x/xx/x----|
A---10---12---11---7/08/7----|
E----------------------------|

Verse...
e------------------------------|
B------------------------------|
G------------------------------|
D-2--22--2--22}----------------|
A-2--22--2--22}----------------|
E-0--00--0--00}----------------|

comes again...
e-------------------------------|
B-------------------------------|
G-------------------------------|
D-8--6--2--22--12--7--9---9-9-9-|
A-8--6--2--22--xx--x--x---9-9-9-|
E-6--3--0--00--10--5--7---7-7-7-|

The End


Текст, аккорды и табулатура для песни "Strength Through Wounding", исполняет "Afi".
Используемые в песне аккорды можно найти в разделе Как брать аккорды. Аккорды для шестиструнной гитары. Другие песни можно найти на нашем сайте, воспользовавшись алфавитным указателем вверху страницы.


 
Ошибка в тексте? Выделите ошибку и нажмите Ctrl+Enter