#----------------------------------PLEASE NOTE---------------------------------#
#This file is the author's own work and represents their interpretation of the-#
#song. You may only use this file for private study, scholarship, or research.-#
#------------------------------------------------------------------------------#

AFI - Heart Broken
Submitted By: Sqweeky
EMail: [email protected]


[email protected]------------| 
D|-------------------------------5---7-5-------------------------------------| 
A|--------2-3-5555-7-5-7-5-7-5-7---------33333333----------------------------| 
E|-333333--------------------------------------------------------------------| 

G|---------------------------------------------------------------------------| 
D|-------5-------------------------------------------------------------------| 
A|---------7-5-3333-3-2-3-2--------------------------------------------------| 
E|-33333--------------------3------------------------------------------------| 

G|---------------------------------------------------------------------------| 
D|-5-3-----------------------------------------------------------------------| 
A|-----5-3-2-----------------------------------------------------------------| 
E|-----------5-3-------------------------------------------------------------|


Текст, аккорды и табулатура для песни "Heart Broken", исполняет "Afi".
Используемые в песне аккорды можно найти в разделе Как брать аккорды. Аккорды для шестиструнной гитары. Другие песни можно найти на нашем сайте, воспользовавшись алфавитным указателем вверху страницы.


 
Ошибка в тексте? Выделите ошибку и нажмите Ctrl+Enter