-------------------------------------------------------------------------------
                 	     HE WHO LAUGHS LAST - AFI
-------------------------------------------------------------------------------

Tabbed by: danc446
Email: [email protected]

Tuning: E Standard

INTRO
e|---------------------------------------------------------------------------|
B|---------------------------------------------------------------------------|
G|---7--7-7-7--7--7-7-7--5--5-5-5--5--5-5-5--4--4-4-4--4--4-4-4--------------|
D|---7--7-7-7--7--7-7-7--5--5-5-5--5--5-5-5--4--4-4-4--4--4-4-4--------------|
A|---5--5-5-5--5--5-5-5--3--3-3-3--3--3-3-3--2--2-2-2--2--2-2-2--------------|
E|---------------------------------------------------------------------------|
pm      *****     *****     *****     *****     *****     *****

VERSE
e|---------------------------PLAY 2x----|------------------------------------|
B|---------------------------------then-|------------------------------------|
G|--7-7-7-7-10-10-10-10-12-12-12-12-5-5-|-7-7-7-7-10-10-10-10-12-12-12-12-12-|
D|--7-7-7-7-10-10-10-10-12-12-12-12-5-5-|-7-7-7-7-10-10-10-10-12-12-12-12-12-|
A|--5-5-5-5--8--8--8--8-10-10-10-10-3-3-|-5-5-5-5--8--8--8--8-10-10-10-10-10-|
E|--------------------------------------|------------------------------------|
                                          Then play first part again, with
                                          only one G5 at the end!
CHORUS
e|---------------------------------------------------------------------------|
B|---------------------------------------------------------------------------|
G|-7-7-7-7------7-7-7-7-----7-7-7-7-----7-7-7-7-----------------------5-5----|
D|-7-7-7-7-7-5--7-7-7-7-7-5-7-7-7-7-7-5-7-7-7-7-7-5---1-3--1-3--1-5---5-5----|
A|-5-5-5-5-7-5--5-5-5-5-7-5-5-5-5-5-7-5-5-5-5-5-7-5---1-3--1-3--1-5---3-3----|
E|---------5-3----------5-3---------5-3---------5-3---3-5--3-5--3-3----------|

BRIDGE
e|------------------------------------------------------------|
B|------------------------------------------------------------|
G|--7-7-7-7-7--9--10-10-10-10-10----7-7-7-7-7--9--5-5-5-5-5---|
D|--7-7-7-7-7--9--10-10-10-10-10----7-7-7-7-7--9--5-5-5-5-5---|
A|--5-5-5-5-5--7---8--8--8--8--8----5-5-5-5-5--7--3-3-3-3-3---|
E|------------------------------------------------------------|

END
e|-----------|
B|-----------|
G|--7xxx--|
D|--5xxx--|     


Текст, аккорды и табулатура для песни "He Who Laughs Last", исполняет "Afi".
Используемые в песне аккорды можно найти в разделе Как брать аккорды. Аккорды для шестиструнной гитары. Другие песни можно найти на нашем сайте, воспользовавшись алфавитным указателем вверху страницы.


 
Ошибка в тексте? Выделите ошибку и нажмите Ctrl+Enter