#-----------------------------------------------------------------------------# 
#-- File created with Instab - http://www.pconline.com/~smcarey/instab.html --# 
#-----------------------------------------------------------------------------# 

Author/Artist: Aerosmith 
Title: Back In The Saddle 
----------------------------------3---3-----------3---3----------4---4-------- 
-----6-5-6---------6-5-6--------3---5---3-------3---5---3------3---5---3----3- 
---7-------7-----7-------7-----------------------------------4-----------4-4-- 
-7-----------7-7-----------7-5------------5-5-------------5------------------- 
------------------------------------------------------------------------------ 
------------------------------------------------------------------------------ 
                                                                               

-4-----4-5-6------------------------------------------------------------------ 
---5---3-4-5------------------------------------------------------------------ 
-------4-5-6------------------------------------------------------------------ 
------------------------------------------------------------------------------ 
--------------2-2-4-5-4-2-4-5-7----------------------------------------------- 
------------------------------------------------------------------------------ 
                                                                               




Текст, аккорды и табулатура для песни "Back In The Saddle", исполняет "Aerosmith".
Используемые в песне аккорды можно найти в разделе Как брать аккорды. Аккорды для шестиструнной гитары. Другие песни можно найти на нашем сайте, воспользовавшись алфавитным указателем вверху страницы.


 
Ошибка в тексте? Выделите ошибку и нажмите Ctrl+Enter