#----------------------------------PLEASE NOTE--------------------------------#
#This file is the author's own work and represents their interpretation of the#
#song. You may only use this file for private study, scholarship, or research.#
#-----------------------------------------------------------------------------#
#-- File created with Instab - http://www.pconline.com/~smcarey/instab.html --#
#-----------------------------------------------------------------------------#

Author/Artist: Aereogramme
Title: Post tour, Pre-judgement
Album: A story in white
Transcribed by: Andrew Cockburn
Email: [email protected]

Standard tuning, drop D
Please e-mail me with corections and other various
aereogramme stuff

------------------------------------------------------------------------------|
------------------------------------------------------------------------------|
-13-13-13-13-13-13-6-6-6-6-6-6-8-8-8-8-8-8-6-6-6-6-6-6------------------------|
-11-11-11-11-11-11-4-4-4-4-4-4-6-6-6-6-6-6-4-4-4-4-4-4------------------------|
-11-11-11-11-11-11-4-4-4-4-4-4-6-6-6-6-6-6-4-4-4-4-4-4------------------------|
-11-11-11-11-11-11-4-4-4-4-4-4-6-6-6-6-6-6-4-4-4-4-4-4------------------------|


------------------------------------------------------------------------------|
------------------------------------------------------------------------------|
------------------------------------------------------------------------------|
-0-------------7-7-7-7-7--x3-6-6-6-4-4-4--x1----------------------------------|
-0-------------7-7-7-7-7-----6-6-6-4-4-4--------------------------------------|
-0-------------7-7-7-7-7-----6-6-6-4-4-4--------------------------------------|


------------------------------------------------------------------------------|
------------------------------------------------------------------------------|
------------------------------------------------------------------------------|
-0-------------7-7-7-7-7--x2-0-6-6-6-4-4-6-0-x1-------------------------------|
-0-------------7-7-7-7-7-----0-6-6-6-4-4-6-0----------------------------------|
-0-------------7-7-7-7-7-----0-6-6-6-4-4-6-0----------------------------------|
              In a way....   I wouldnt be what I am

------------------------------------------------------------------------------|
------------------------------------------------------------------------------|
-13-13-13-13-13-13-6-6-6-6-6-6-8-8-8-8-8-8-6-6-6-6-6-6------------------------|
-11-11-11-11-11-11-4-4-4-4-4-4-6-6-6-6-6-6-4-4-4-4-4-4------------------------|
-11-11-11-11-11-11-4-4-4-4-4-4-6-6-6-6-6-6-4-4-4-4-4-4------------------------|
-11-11-11-11-11-11-4-4-4-4-4-4-6-6-6-6-6-6-4-4-4-4-4-4------------------------|


------------------------------------------------------------------------------|
------------------------------------------------------------------------------|
-----------------------x3-----------------------------------------------------|
-0------------7-7-7-7-7-----6-6-6-4-4-4--x1-----------------------------------|
-0------------7-7-7-7-7-----6-6-6-4-4-4---------------------------------------|
-0------------7-7-7-7-7-----6-6-6-4-4-4---------------------------------------|


------------------------------------------------------------------------------|
------------------------------------------------------------------------------|
------------------------------------------------------------------------------|
-0------------7-7-7-7-7-x2--6-6-6-4-4-6-0---x1--------------------------------|
-0------------7-7-7-7-7-----6-6-6-4-4-6-0-------------------------------------|
-0------------7-7-7-7-7-----6-6-6-4-4-6-0-------------------------------------|
              In a way.....

------------------------------------------------------------------------------|
------------------------------------------------------------------------------|
------------------------------------------------------------------------------|
-1-1-1-1-1-1-1-1-1-1-1-1--0-7------5-0-7-----5---x2---------------------------|
-1-1-1-1-1-1-1-1-1-1-1-1--0-7--7-5---0-7-7-5----------------------------------|
-1-1-1-1-1-1-1-1-1-1-1-1--0-7--------0-7--------------------------------------|
                              Harmonics

------------------------------------------------------------------------------|
-18---18-16-14-16---16-14-13-9---14-6-----------------------------------------|
-x----x--x--x--x----x--x--x--x---x--x-----------------------------------------|
-15---15-13-11-13---13-11-10-6---11-3-----------------------------------------|
------------------------------------------------------------------------------|
------------------------------------------------------------------------------|


------------------------------------------------------------------------------|
-------15----------15----------15----------15----------15-------15------------|
----14----14----14----14----14----14----14----14----14-------14----14---------|
-15----------15----------15----------15----------15-------15------------------|
------------------------------------------------------------------------------|
------------------------------------------------------------------------------|


------------------------------------------------------------------------------|
-------15----------15----------15----------15----------15----------15---------|
----14----14----14----14----14----14----14----14----14----14----14----14------|
-14----------14----------14----------14----------14----------14---------------|
------------------------------------------------------------------------------|
------------------------------------------------------------------------------|
 unsure about these 2

------------------------------------------------------------------------------|
------------------------------------------------------------------------------|
------------------------------------------------------------------------------|
-0------------7-7-7--x3-6-6-6-6-6-4-4-4-4-4-----------------------------------|
-0------------7-7-7-----6-6-6-6-6-4-4-4-4-4-----------------------------------|
-0------------7-7-7-----6-6-6-6-6-4-4-4-4-4-----------------------------------|
  After playing this twice end on an open D


Текст, аккорды и табулатура для песни "Post Tour Pre Judgement", исполняет "Aereogramme".
Используемые в песне аккорды можно найти в разделе Как брать аккорды. Аккорды для шестиструнной гитары. Другие песни можно найти на нашем сайте, воспользовавшись алфавитным указателем вверху страницы.


 
Ошибка в тексте? Выделите ошибку и нажмите Ctrl+Enter