#----------------------------------PLEASE NOTE--------------------------------#
#This file is the author's own work and represents their interpretation of the#
#song. You may only use this file for private study, scholarship, or research.#
#-----------------------------------------------------------------------------#
#-- File created with Instab - http://www.pconline.com/~smcarey/instab.html --#
#-----------------------------------------------------------------------------#

Author/Artist: Aereogramme
Title: A Meaningful existance
Album: A story in white
Transcribed by: Andrew Cockburn
Email: [email protected]

Standard tuning but drop D
This guitar part is for the piano and the chorus guitar.
I know there are little variations here and there missed out but the basics are here
 Just listen to the song for the little variations.
And plaese e-mail me with corections and any other Aereogramme rubbish.
Riff 1

------------------------------------------------------------------------------|
------------------------------------------------------------------------------|
------6-------6-------------6-------6-------6------6--------------------------|
----7---7---7---7--7------7---7---7-------7---7--7----------------------------|
-5--------5-------------5-------5-------5-------5-----------------------------|
----------------------5---------------5---------------------------------------|
 Riff 2

--0-0-0-0-0-0-0-0-0-x-x-------------------------------------------------------|
--5-5-5-5-5-5-5-5-5-x-x-------------------------------------------------------|
--7-7-7-7-7-7-7-7-7-x-x-x3-7-7-7-11-11-11-9-9-9-7-7-7----x1-------------------|
--7-7-7-7-7-7-7-7-7-x-x----x-x-x-x--x--x--x-x-x-x-x-x-------------------------|
--5-5-5-5-5-5-5-5-5-x-x----5-5-5-9--9--9--7-7-7-5-5-5-------------------------|
--0-0-0-0-0-0-0-0-0-x-x-------------------------------------------------------|
 Riff 3

------------------------------------------------------------------------------|
------------------------------------------------------------------------------|
-7-7-7-7-7-7-7-7-7-7-7-7-9-9-9-9-9-9-9-9-9-9-9-9-6-6-6-6-6-6-6-6-6-6-6-6-7-7--|
-7-7-7-7-7-7-7-7-7-7-7-7-7-7-7-7-7-7-7-7-7-7-7-7-4-4-4-4-4-4-4-4-4-4-4-4-5-5--|
-5-5-5-5-5-5-5-5-5-5-5-5-7-7-7-7-7-7-7-7-7-7-7-7-4-4-4-4-4-4-4-4-4-4-4-4-5-5--|
-------------------------7-7-7-7-7-7-7-7-7-7-7-7-4-4-4-4-4-4-4-4-4-4-4-4-5-5--|


------------------------------------------------------------------------------|
------------------------------------------------------------------------------|
-7-7-7-7-7-7-9-9-11-11--------------------------------------------------------|
-5-5-5-5-5-5-7-7-9--9---------------------------------------------------------|
-5-5-5-5-5-5-7-7-9--9---------------------------------------------------------|
-5-5-5-5-5-5-7-7-9--9---------------------------------------------------------|
 Riff 4

------------------------------------------------------------------------------|
------------------------------------------------------------------------------|
------------------------------------------------------------------------------|
-12-12-12-12-12-12-12-12-12-12-12-12-14-14-14-14-14-14-14-14-14-14-14-14-9-9--|
-12-12-12-12-12-12-12-12-12-12-12-12-14-14-14-14-14-14-14-14-14-14-14-14-9-9--|
-12-12-12-12-12-12-12-12-12-12-12-12-14-14-14-14-14-14-14-14-14-14-14-14-9-9--|


------------------------------------------------------------------------------|
------------------------------------------------------------------------------|
------------------------------------------------------------------------------|
-9-9-9-9-9-9-9-9-9-9x-x-9-9-9-9-9-9-7-7-5-5-0-0-------------------------------|
-9-9-9-9-9-9-9-9-9-9x-x-9-9-9-9-9-9-7-7-5-5-0-0-------------------------------|
-9-9-9-9-9-9-9-9-9-9x-x-9-9-9-9-9-9-7-7-5-5-0-0-------------------------------|
 Riff 1x5 Riff 2x1 Riff 3x2 Riff 1x5 Riff 2x1 Riff 3x3 Riff 4x4


Текст, аккорды и табулатура для песни "Meaningful Existance", исполняет "Aereogramme".
Используемые в песне аккорды можно найти в разделе Как брать аккорды. Аккорды для шестиструнной гитары. Другие песни можно найти на нашем сайте, воспользовавшись алфавитным указателем вверху страницы.


 
Ошибка в тексте? Выделите ошибку и нажмите Ctrl+Enter