#------------Created with Taborama Tab Creator-----------------#
#------------------------------------------------------------------------------#

Title: The Way You Like It
Artist: Adema
Album: 

Instrument: 4 String Bass

Tabbed by: Lord Headley ([email protected])

Tuning: Standard (E A D G)

This is what i always play in my band and it sounds fine to me.  
The intro is just what i messed around with and it sounds cool 
but i doubt it's right.

Intro
G|---------------------------------||
D|------5-7------------------------||
A|--5-7-----7-5--------------------||
E|6-------------6------------------||

Chorus (no bass) 2x

Verse (A)
  3x           1x
G|------------|--------------------------------------||
D|------------|--------------------------------------||
A|------------|--------------------------------------||
E|66-66-66-66-|66-66-66-44/-999----------------------||

Verse (B)
  3x           1x
G|------------|---------------------||
D|------------|---------------------||
A|------------|---------------------||
E|66-66-66-66-|66-66-66-------------||


Chorus 4x

G|---------------------------------||
D|---------------------------------||
A|----------999-888----------------||
E|666666666--------999-------------||

Verse (A)
Verse (B)
Chorus 4x

Interlude
  2x
G|---------------------------------||
D|---------------------------------||
A|---------------------------------||
E|66-66-66-66---66-66-66-44/-999---||

  3x           1x
G|------------|--------------------||
D|------------|--------------------||
A|------------|--------------------||
E|66-66-66-66-|66-66-66-44/-9*-----||

Chorus 9x
==========Adema
The Way You Like It

Transcribed By: Ryan Huntsman  (IbanezBassMX)
Email: [email protected]

Tunning- tuned down 1/2 step- low to high
(E,A,D,G)

Intro (0:00)
G----------------------------------------------------------------------
D----------------------------------------------------------------------
A---------------------------------------------------------5-7-7h9-7-5--
E-5-5-------5----5-5---5-5--5---5-5-------5----5-5----5-7--------------

G----------------------------------
D----------------------------------
A----------------------------------
E-7-7--7---------------------5-5--

Verses (0:23, 1:10)
G----------------------------------------------
D----------------------------------------------
A----------------------------------------------
E-5-5-------5-5----5-5----5-5------5-5----5-5--

G-----------------------------------------------------------
D-----------------------------------------------------------
A-----------------------------------------------------------
E-5-5-------10-10/12-12-12---7-7--7-----5-5----5-5----5-5--

Chorus (0:47, 1:33, 2:32)
G------------------------------------------------------------
D------------------------------------------------------------
A------------------------------------------------------------
E-5-5-------5-5----5---5-5----5-5-------5-7-7-7-7--5-7~--5/--

G------------------------------------------------------------
D------------------------------------------------------------
A------------------------------------------------------------
E-3-3---3/5--2~--2--/10-10-10-10---5-7-7-7-7---5-7~--5-5-5/--

G-----------------------------------------------------------------------------------
D-----------------------------------------------------------------------------------
A-----------------------------------------------------------------------------------
E-3-3--3/5--2~-2--2-/10-10-10-10--7-7-7-7-7--5-7~--5/--3-3--3/5--2~-2-/10-10-10-10--

Bass Fill (1:10)
G-------------------
D-------------------
A-------------------
E-7-7~---5-5----5--

Interlude (1:57)
G----------------------------------------------------------------
D----------------------------------------------------------------
A----------------------------------------------------------------
E-10-7~~--5---5-5------5-5--5---5-5-------5----5-5------5-5---5--

Bridge (2:09)
G---------------14~~~----------13-13-----------------------
D---------------16~~~-------14-------14-14-14/16-----------   X3
A------------------------------------------------14-14-14--
E-5-5----5---5---------------------------------------------

G---------14--------------------------------------------14--------
D------16--------------------------------------------16-----------
A-----------------------------------------------------------------
E-5-5--------------5-5----5---5-5-------5-5-----5-5----------5-5--

G-----------------------
D-----------------------
A--------------7h9-7-5--
E-5-5-------------------

(2:52)
G-------------------------------------------------------
D-------------------------------------------------------
A----------------5-5-7/97-5-5--------------------------
E-3-3---3/5--2~-----------------------------------------

Outro Chorus  (2:55)
G-------------------------
D-------------------------
A-------------------------
E-7-7-7-7-7-5-7~-5-5-7-0--

G--------------------------------
D--------------------------------  X3
A--------------------------------
E-3-3--35--2~--2--10-10-10-10--

Thats all of it, Have fun.
This tab is 100% correct.
Please rate this tab, Thanks.


Текст, аккорды и табулатура для песни "The Way You Like It", исполняет "Adema".
Используемые в песне аккорды можно найти в разделе Как брать аккорды. Аккорды для шестиструнной гитары. Другие песни можно найти на нашем сайте, воспользовавшись алфавитным указателем вверху страницы.


 
Ошибка в тексте? Выделите ошибку и нажмите Ctrl+Enter