------------------------------------------
------------------------------------------
------------------------------------------
--------------------3-3--4--3-------------
-1-1----3----4-4---3-------------4--3--1--
------------------------------------------

------------------------------------------
------------------------------------------
------------------------------------------
--------------------3-3--4--3-------------
-1-1----3----4-4---3-------------4--3--1--
------------------------------------------

thats the best that i could do i pretty sure thats it if not o well
sounds like it to me well enjoythanks for checking out my tab


Текст, аккорды и табулатура для песни "Speculum", исполняет "Adema".
Используемые в песне аккорды можно найти в разделе Как брать аккорды. Аккорды для шестиструнной гитары. Другие песни можно найти на нашем сайте, воспользовавшись алфавитным указателем вверху страницы.


 
Ошибка в тексте? Выделите ошибку и нажмите Ctrl+Enter