e------------------------------------------------------------------------------------|
b---------------------------|---------7--------------------------------------10-8-7------------6-|
g---7-6---7-6---7-6---7-6---|---6-7-9---9-7-6---6-7-6-9-6-7-6-6-7-6-9-6-7-6---------9-7-6--------|
d-------9-----9-----9-----9-|-9-----------------------------------------------------------9-8-9--|
a------------------------------------------------------------------------------------|
e------------------------------------------------------------------------------------|

e---------------------------|
b---------------------------|
g---9-7-6-7-6---7-6---7-6---|
d-------------9-----9-----9-|
a---------------------------|
e---------------------------|    дальше идет повторение второй части

Bm
По утрам на всех рынках города
G
Детвора среди барыг ошивается:
A
Кто ворует, а кто просто кормится,
Em              F#
Ну а в общем, все побираются.
У народа хватает подлости,
У вождей не хватило смелости.
Вот по-этому пьет по черному
Наша сраная интелегенция                  
Em                  
Патриот мне сказал, что я конченый тип,
F#
А нацист подтвердил и добавил: "Он жид!"
Em
Я стоял одинокий среди грустных людей.
F#
Мне хотелось любви, им хотелось скорей.
G                  Bm
Мой город будет стоять!
Мой город будет стоять!
Мой город будет стоять!  A Em F#

По переименованным улицам,
По убитому детству далекому,
Мимо псов со страшными рожами
Улыбаются мне прохожие.
Ночью звезды на небе светятся,
Ночью психи луною маются,
Провода и столбы шевелятся,
Даже стены, и те кусаются.
Ну а если проснусь, то не выдам себя,
Втихаря улыбнусь, разобью зеркала.
Белый саван зимы, он красив на земле;
Остаются следы. Что-то сдохло во мне.
Мой город будет стоять!
Что же делать тем, кто не варится
В их котлах, кошельках, половниках,
Кто по-прежнему просто тащится
И в ладах со своею совестью?
Он идет по земле хозяином,
Понимая свое одиночество,
Не справляет народные праздники
И не борется за экологию.
И не нужно ему никаких перемен,
Революций, погромов, игрушечных войн.
Он далек от бессмысленных наших проблем,
Он не знает такого понятия - дом.


Текст, аккорды и табулатура для песни "Мой город будет стоять", исполняет "Адаптация".
Используемые в песне аккорды можно найти в разделе Как брать аккорды. Аккорды для шестиструнной гитары. Другие песни можно найти на нашем сайте, воспользовавшись алфавитным указателем вверху страницы.


 
Ошибка в тексте? Выделите ошибку и нажмите Ctrl+Enter