B-------------------------------------------------------|
G---------------2--5--2---------------------------------|
D---5--5-----------------5--3--5--3--5------------------|
A---3--3--5--5------------------------------------------|
E---------3--3------------------------------------------|

                                              

E-------------------------------------------------------|
B-------------------------------------------------------|
G---------------2--5--2-----------5---------------------|
D---5--5-----------------5--3--5------------------------|
A---3--3--5--5------------------------------------------|
E---------3--3------------------------------------------|

                    все вместе  x2

E---------------3--5--8--5------------------------------|
B------------5--------------8--6--8--6--8---------------|
G---5--4--5---------------------------------------------|
D-------------------------------------------------------|
A-------------------------------------------------------|
E-------------------------------------------------------|


E---------------3--5--8--5-----------8------------------|
B------------5--------------8--6--8---------------------|
G---5--4--5---------------------------------------------|
D-------------------------------------------------------|
A-------------------------------------------------------|
E-------------------------------------------------------|

                    все вместе  х2

Куплет 1:

Юноше,обдумывающему житье,надо сразу сказать:"Любая власть-дерьмо"
E-------------------------------------------------------|
B-------------------------------------------------------|
G-------------------------------------------------------|
D---5--5--------5--5--------5--5--------5--5------------|
A---3--3--5--5--3--3--3--3--3--3--5--5--3--3--3--3------|
E---------3--3--------1--1--------3--3--------1--1------|

Любой закон - это тюрьма,а разговоры про свободу - это все ерунда
E-------------------------------------------------------|
B-------------------------------------------------------|
G-------------------------------------------------------|
D---5--5--------5--5--------5--5--------5--5------------|
A---3--3--5--5--3--3--3--3--3--3--5--5--3--3--3--3------|
E---------3--3--------1--1--------3--3--------1--1------|

Огнем и мечом наведут порядок,железный кулак установит покой
E-------------------------------------------------------|
B-------------------------------------------------------|
G-------------------------------------------------------|
D---5--5--------5--5--------5--5--------5--5------------|
A---3--3--5--5--3--3--3--3--3--3--5--5--3--3--3--3------|
E---------3--3--------1--1--------3--3--------1--1------|

Таких,как я,поставят к стенке,а мы умрем с криками:"Хой!"
E-------------------------------------------------------|
B-------------------------------------------------------|
G-------------------------------------------------------|
D---5--5--------5--5--------5--5--------5--5------------|
A---3--3--5--5--3--3--3--3--3--3--5--5--3--3--3--3------|
E---------3--3--------1--1--------3--3--------1--1------|

Припев:

      АНАРХИЯ!
Е-------------------------------------------------------|
В-------------------------------------------------------|
G---------------2--5--2---------------------------------|
D---5--5-----------------5--3--5--3--5------------------|
A---3--3--5--5------------------------------------------|
E---------3--3------------------------------------------|


      АНАРХИЯ!
E-------------------------------------------------------|
B-------------------------------------------------------|
G---------------2--5--2-----------5---------------------|
D---5--5-----------------5--3--5------------------------|
A---3--3--5--5------------------------------------------|
E---------3--3------------------------------------------|

                 Припев  х2

 
Так отдайте бездомным дома,а калекам отдайте их части тела
E-------------------------------------------------------|
B-------------------------------------------------------|
G-------------------------------------------------------|
D---5--5--------5--5--------5--5--------5--5------------|
A---3--3--5--5--3--3--3--3--3--3--5--5--3--3--3--3------|
E---------3--3--------1--1--------3--3--------1--1------|

Пусть будет все как вода,как завещал нам хайрастый Ленин
E-------------------------------------------------------|
B-------------------------------------------------------|
G-------------------------------------------------------|
D---5--5--------5--5--------5--5--------5--5------------|
A---3--3--5--5--3--3--3--3--3--3--5--5--3--3--3--3------|
E---------3--3--------1--1--------3--3--------1--1------|

Землю крестьянам,заводы рабочим,народам мир и любовь,
E-------------------------------------------------------|
B-------------------------------------------------------|
G-------------------------------------------------------|
D---5--5--------5--5--------5--5--------5--5------------|
A---3--3--5--5--3--3--3--3--3--3--5--5--3--3--3--3------|
E---------3--3--------1--1--------3--3--------1--1------|

Но не отдайте черное знамя и надежду на русский авось!
E-------------------------------------------------------|
B-------------------------------------------------------|
G-------------------------------------------------------|
D---5--5--------5--5--------5--5--------5--5------------|
A---3--3--5--5--3--3--3--3--3--3--5--5--3--3--3--3------|
E---------3--3--------1--1--------3--3--------1--1------|

       
                 Припев  х2
       


 соло:



D---10-10-10-10-10-10-10---5-5-5-5-5-5-5---7-7-7-7-7-7-7---
A---10-10-10-10-10-10-10---5-5-5-5-5-5-5---7-7-7-7-7-7-7---

D---3-3-3-3-3-3-3     х2
A---3-3-3-3-3-3-3

G---5-4-5-4-5-4-5---7-6-7-6-7-6-7---9-8-9-8-9-8-9---10-9-10-
D---5-4-5-4-5-4-5---7-6-7-6-7-6-7---9-8-9-8-9-8-9---10-9-10-

G---9-10-9-10    х2
D---9-10-9-10
 Далее идет припев,а после него идет концовка:

G--5--4--2--0--2--4--5--4--2--0--2--4--5--4--2--0--2--4-5



Текст, аккорды и табулатура для песни "Анархия", исполняет "Адаптация".
Используемые в песне аккорды можно найти в разделе Как брать аккорды. Аккорды для шестиструнной гитары. Другие песни можно найти на нашем сайте, воспользовавшись алфавитным указателем вверху страницы.


 
Ошибка в тексте? Выделите ошибку и нажмите Ctrl+Enter