#----------------------------------PLEASE NOTE--------------------------------#
#This file is the author's own work and represents their interpretation of the#
#song. You may only use this file for private study, scholarship, or research.#
#-----------------------------------------------------------------------------#

Title           : New York, New York
Artist          : Ryan Adams
Album           : Gold

Transcribed by  : Ferry Falkenburg ([email protected])

Notes           : -
#-----------------------------------------------------------------------------#

Ryan Adams - New York, New York
-------------------------------

Standard tuning.

Chords used (acoustic guitar):
    A      D/A      E     Dsus2   E7/D
e -----   -----   --0--   --0--   --0--  
B --2--   --3--   --0--   --3--   --3--  
G --2--   --2--   --1--   --2--   --1--  
D --2--   --4--   --2--   --0--   --0--  
A --0--   --0--   --2--   -----   -----  
E -----   -----   --0--   -----   -----  

Chords used (electric guitar):
   A5      D5      E5
e -----   -----   -----   
B -----   -----   -----   
G -----   --7--   --9--   
D --7--   --7--   --9--   
A --7--   --5--   --7--   
E --5--   -----   -----   


   Acoustic guitar:
    A        D/A      A  D/A    A         A        D/A      A  D/A    A
e||-------------------------------------|-------------------------------------|
B||-2-2-2-2h3-3-3-3-3-2h3-3-3-3-2-2-2-2-|-2-2-2-2h3-3-3-3-3-2h3-3-3-3-2-2-2-2-|
G||-2-2-2-2---2-2-2-2-2---2-2-2-2-2-2-2-|-2-2-2-2---2-2-2-2-2---2-2-2-2-2-2-2-|
D||-2-2-2-2h4-4-4-4-4-2h4-4-4-4-2-2-2-2-|-2-2-2-2h4-4-4-4-4-2h4-4-4-4-2-2-2-2-|
A||-0-0-0-0---0-0-0-0-0---0-0-0-0-0-0-0-|-0-0-0-0---0-0-0-0-0---0-0-0-0-0-0-0-|
E||-------------------------------------|-------------------------------------|
 ||                                                                           |
 ||Electric guitar:                                                           |
 ||                                       A                                   |
e||-------------------------------------|-------------------------------------|
B||-------------------------------------|-------------------------------------|
G||-------------------------------------|-0h2---------------------------------|
D||-------------------------------------|-2-----------------------------------|
A||-------------------------------------|-0-----------------------------------|
E||-------------------------------------|-------------------------------------|


    A        D/A      A  D/A    A         A        D/A      A  D/A    A
e||-------------------------------------|-------------------------------------|
B||-2-2-2-2h3-3-3-3-3-2h3-3-3-3-2-2-2-2-|-2-2-2-2h3-3-3-3-3-2h3-3-3-3-2-2-2-2-|
G||-2-2-2-2---2-2-2-2-2---2-2-2-2-2-2-2-|-2-2-2-2---2-2-2-2-2---2-2-2-2-2-2-2-|
D||-2-2-2-2h4-4-4-4-4-2h4-4-4-4-2-2-2-2-|-2-2-2-2h4-4-4-4-4-2h4-4-4-4-2-2-2-2-|
A||-0-0-0-0---0-0-0-0-0---0-0-0-0-0-0-0-|-0-0-0-0---0-0-0-0-0---0-0-0-0-0-0-0-|
E||-------------------------------------|-------------------------------------|
 ||                                                                           |
 ||                                       A                                   |
e||-------------------------------------|-------------------------------------|
B||-------------------------------------|-------------------------------------|
G||-------------------------------------|-0h2---------------------------------|
D||-------------------------------------|-2-----------------------------------|
A||-------------------------------------|-0-----------------------------------|
E||-------------------------------------|-------------------------------------|


    A        D/A      A  D/A    A         A        D/A      A  D/A    A
e||-------------------------------------|-------------------------------------||
B||-2-2-2-2h3-3-3-3-3-2h3-3-3-3-2-2-2-2-|-2-2-2-2h3-3-3-3-3-2h3-3-3-3-2-2-2-2-||
G||-2-2-2-2---2-2-2-2-2---2-2-2-2-2-2-2-|-2-2-2-2---2-2-2-2-2---2-2-2-2-2-2-2-||
D||-2-2-2-2h4-4-4-4-4-2h4-4-4-4-2-2-2-2-|-2-2-2-2h4-4-4-4-4-2h4-4-4-4-2-2-2-2-||
A||-0-0-0-0---0-0-0-0-0---0-0-0-0-0-0-0-|-0-0-0-0---0-0-0-0-0---0-0-0-0-0-0-0-||
E||-------------------------------------|-------------------------------------||
 ||                                                                           ||
 || A5        D5          D5    A5         A5        D5          D5    A5     ||
e||-------------------------------------|-------------------------------------||
B||-------------------------------------|-------------------------------------||
G||-----------7-----------7---7---------|------------7-----------7---7--------||
D||-7---7-----7-----------7---7-7-------|--7---7-----7-----------7---7-7------||
A||-7---7-----5-----------5---5-7-------|--7---7-----5-----------5---5-7------||
E||-5---5-----------------------5-------|--5---5-----------------------5------||



   RIFF 1 (Acoustic guitar during verses):
    A        D/A      A  D/A    A         A        D/A      A  D/A    A
e||-------------------------------------|-------------------------------------||
B||-2-2-2-2h3-3-3-3-3-2h3-3-3-3-2-2-2-2-|-2-2-2-2h3-3-3-3-3-2h3-3-3-3-2-2-2-2-||
G||-2-2-2-2---2-2-2-2-2---2-2-2-2-2-2-2-|-2-2-2-2---2-2-2-2-2---2-2-2-2-2-2-2-||
D||-2-2-2-2h4-4-4-4-4-2h4-4-4-4-2-2-2-2-|-2-2-2-2h4-4-4-4-4-2h4-4-4-4-2-2-2-2-||
A||-0-0-0-0---0-0-0-0-0---0-0-0-0-0-0-0-|-0-0-0-0---0-0-0-0-0---0-0-0-0-0-0-0-||
E||-------------------------------------|-------------------------------------||


   RIFF 2 (Electric guitar):
e||--5--4-4-4--||
B||------------||
G||------------||
D||------------||
A||------------||
E||------------||


          RIFF 1:
          A                                D/A
   Well I shuffled through the city on the Fourth of July
                                A
   Had a firecracker waiting to blow
   A                              D/A
   Breaking like a robber who was making his way
                        A
   To the cities of Mexico
   A                            D/A
   Lived in an apartment out on Avenue A
                              A
   Had a tar on the corner of Tenth
   A                          D/A
   Had myself a lover who was finer than gold
                                        A
   But I been broke I've been busted up since


   E5         A5       E5         A5  


Текст, аккорды и табулатура для песни "New York New York", исполняет "Adams Ryan".
Используемые в песне аккорды можно найти в разделе Как брать аккорды. Аккорды для шестиструнной гитары. Другие песни можно найти на нашем сайте, воспользовавшись алфавитным указателем вверху страницы.


 
Ошибка в тексте? Выделите ошибку и нажмите Ctrl+Enter