New York, New York - Ryan Adams
D.H. Dilbeck email me if you find more ryan adams at
[email protected]
Close enough - corrections encouraged


4/4 time (four dashes = 1 beat, each bar has extra dash at start for
readability)

Strum freely (and a lot)

THE FIRST PART:
Verse (hammer on's here and there)

    A       Dsus9     D       A
    , . , . , . , .   , . , . , . , .
 ||-x-x-----x-x-----|-x-x-----x-------||
 ||-0h2-----2h3-----|-2h3-----2-------||
 ||-0h2-----2-2-----|-2-2-----2-------||
 ||-0h2-----2-2-----|-2h4-----2-------||
 ||-0-0-----0-0-----|-0-0-----0-------||
 ||-x-x-----x-x-----|-x-x-----x-------||


THE NEXT PART:
Repeat first bar twice (like it says)

    E       A          Dsus    Ddim      Dsus    Ddim
    , . , . , . , .    , . , . , . , .   , . , . , . , .
 ||-x-------x-------||-x-------x-------|-x-------x-------|
 ||-0-------2-------||-3-------3-------|-3-------3-------|
 ||-1-------2-------||-2-------1------h|-2-------1-------|
 ||-2-------2-------||-0-------0-------|-0-------0-------|
 ||-2-------0-------||-0-------0-------|-0-------0-------|
 ||-0-------x-------||-x-------x-------|-x-------x-------|

    E       A          Dsus    Ddim      Dsus    E7
    , . , . , . , .    , . , . , . , .   , . , . , . , .
 ||-x-------x-------||-x-------x-------|-x-------x-------|
 ||-0-------2-------||-3-------3-------|-3-------3-------|
 ||-1-------2-------||-2-------1------h|-2-------1-------|
 ||-2-------2-------||-0-------0-------|-0-------2-------|
 ||-2-------0-------||-0-------0-------|-0-------2-------|
 ||-0-------x-------||-x-------x-------|-x-------0-------|


THE END PART:
Ending (combination of D,A,E,G) Asus7-11? resloves to A at end
Bass is mainly D and A

Try one of these:

 |-3-| |-5-| |-5-| |-3-| |-5-|
 |-3-| |-5-| |-8-| |-3-| |-8-|
 |-2-| |-7-| |-7-| |-2-| |-7-|
 |-2-| |-5-| |-5-| |-0-| |-5-|
 |-0-| |-5-| |-5-| |-0-| |-7-|
 |-x-| |-5-| |-5-| |-x-| |-5-|

I like this one - stick in a hammer once in a while to relieve ennui
  Plain A at the end

      A?     A? A7 A
 ||---5-||---5--5--5-|
 ||---5-||---5--5--5-|
 ||-6h7-||-6h7--6--6-|
 ||---5-||---5--5--7-|
 ||---7-||---7--7--7-|
 ||---5-||---5--5--5-|


Текст, аккорды и табулатура для песни "New York New York", исполняет "Adams Ryan".
Используемые в песне аккорды можно найти в разделе Как брать аккорды. Аккорды для шестиструнной гитары. Другие песни можно найти на нашем сайте, воспользовавшись алфавитным указателем вверху страницы.


 
Ошибка в тексте? Выделите ошибку и нажмите Ctrl+Enter