Bryan Adams When Youґre gone solo
Tabbed by Magnus Kull

E-------------------------------------|-----------------------------------|
B-12b---------------------------------|-----------------------------------|
G-----12------------------14-12-------|-----------------------------------|
D--------12-14-12--10/13--------13b-13b-13br-12-10-10----10-12-10---------|
A-------------------------------------|---------------12------------------|
e-------------------------------------|-----------------------------------|

E------------------------------------|-----------------------------------|
B------------------------------------|-----------------------------------|
G------------------------------------|-----------------------------------|
D--12-12-10-13b-13b-12-10----10------|-----------------------------------|
A-------------------------12----12-10|------10--12-10--------------------|
e------------------------------------|11-12------------------------------|

E------------------------------------|-----------------------------------|
B-13-13-10-10-10-10-------10-10------|-10--------------------------------|
G-------------------12-12-------12-12|----12-------9-12-12-12-12-14-12---|
D------------------------------------|-------12-10-----------------------|
A------------------------------------|-----------------------------------|
e------------------------------------|-----------------------------------|

E------------------------------------|-----------------------------------|
B-----13-15b17br15-13-13----13-15-15-13-15-15-15-------------------------|
G--14--------------------14----------|-----------15-15-15-15-14-12-14-12-|
D------------------------------------|-----------------------------------|
A------------------------------------|-----------------------------------|
e------------------------------------|-----------------------------------|

E------------------------------------|-----------------------------------|
B------------------------------------|-----------------------------------|
G-14-12------------------------------|-----------------------------------|
D------------------------------------|-----------------------------------|
A------------------------------------|-----------------------------------|
e------------------------------------|-----------------------------------|



Текст, аккорды и табулатура для песни "When You Are Gone", исполняет "Adams Bryan".
Используемые в песне аккорды можно найти в разделе Как брать аккорды. Аккорды для шестиструнной гитары. Другие песни можно найти на нашем сайте, воспользовавшись алфавитным указателем вверху страницы.


 
Ошибка в тексте? Выделите ошибку и нажмите Ctrl+Enter