Вступление: E5 A5 A5 


         E5 A5 A5 	         E5  A5 A5
Stand up -         if ya wanna fight
I'm tellin' all the women - stand up for your rights
If ya wanna wear the trousers - you wanna act like a man
I'd love to trade ya places - love to be your thang
      A5    D5 D5 	     A5	         D5 D5 
I'd do all the shopping - collect you favourite suit
E5      A5 A5              | E5     A5 A5 
Press all the laundry - polish all your boots

Бридж:
            D                      Dsus4	    D   Dsus4   
And if you brought me flowers - I'd meet you at the door
A	  	   Asus4          A	         Asus4
Have your dinner ready - your slippers on the floor
                  H	           Hsus4      H	    Hsus4
And when day turns to night and you feel alright
           H5             A5     
And I turn out the lights

Припев:
 	      E      A	   E
  Touch the hand of the man
           A	     E   A H E
Who'll make ya woman
A        H     A     D	  A
Touch the hand of the man
           D         E   A H E
Who'll make it right
A        H     D         H
Touch the hand of the man
	            E     A H  E
Who'll make ya woman
      A H        H 			  
Yeah when day turns to night and you feel alright
                     A    
I turn out the lights


Stand up - it's alright
Love to play the woman - love to play your wife
Light you favorite cigarette - pour your favorite drink
Wear your best apron - wash the dishes in the sink
Get your shaving lotion - turn the shower on
Warm up your bathrobe - keep my baby warm

Bridge 2:
Read ya bedtime stories - while you take a nap
Turn on the TV - put out the cat
But when day turns to night and you feel alright
And I turn out the lights...

Припев
Solo: A D | A D | E A | E A | -2р

Solo:
b = bend 1 tone
br = bend 1 tone then release
pb = pre-bend 1 tone
pbr = pre-bend 1 tone then release

   A             D                 | A            D        | E          A	     | E                  A
E-----------------5-----5-----------7-----7------7-7----7---------
B-8b--8b--8b-8b-----8b----8b-----7b---7b----7b-------7b---7br-5---
G-----------------------------------------------------------------
D-----------------------------------------------------------------
A-----------------------------------------------------------------
E-----------------------------------------------------------------

         | A	       D		    | A		          D		| 
E-12---12-12--12-12--12-12-12---12---12-------12-------
B-12b--12-12b-12-12b-12----12b--12pb-12pbr-10-12b------
G------------------------------------------------------
D------------------------------------------------------
A------------------------------------------------------
E------------------------------------------------------

   E			A		| E		   A	         | D….
E----------------------------------------------------------------
B-15br-12-12-----12-----12-----12-----12---------------15b--15---
G------------14b----14b----14b----14b----14br-12-14b-------------
D----------------------------------------------------------------
A----------------------------------------------------------------
E----------------------------------------------------------------

Припев
Outro:
E A | E A |
E A H | E A H |
A D | A D |
E A H | E A H |
D | H |



Текст, аккорды и табулатура для песни "Touch The Hand", исполняет "Adams Bryan".
Используемые в песне аккорды можно найти в разделе Как брать аккорды. Аккорды для шестиструнной гитары. Другие песни можно найти на нашем сайте, воспользовавшись алфавитным указателем вверху страницы.


Слушать онлайн Touch The Hand


Bryan AdamsTouch The Hand на Яндекс.Музыке


 
Ошибка в тексте? Выделите ошибку и нажмите Ctrl+Enter