Summer of 69
Bryan Adams

Intro/1st Verse
Guitar 1
e|----------------------------------------------------------------------|
B|----------------------------------------------------------------------|
G|-7---7------------------------------7---7-----------------------------|
D|-7-7-7-7-7-7-7-7--7-7-7-7-7-7-7-7---7-7-7-7-7-7-7-7--7-7-7-7-7-7-7-7--|
A|-5-5-5-5-5-5-5-5--5-5-5-5-5-5-5-5---5-5-5-5-5-5-5-5--5-5-5-5-5-5-5-5--|
E|----------------------------------------------------------------------|

e|----------------------------------------------------------------------|
B|----------------------------------------------------------------------|
G|------------------------------------7---7------------7---7------------|
D|-7---7------------7---7-------------7-7-7-7-7-7-7-7--7-7-7-7-7-7-7-7--|
A|-7-7-7-7-7-7-7-7--7-7-7-7-7-7-7-7---5-5-5-5-5-5-5-5--5-5-5-5-5-5-5-5--|
E|-5-5-5-5-5-5-5-5--5-5-5-5-5-5-5-5-------------------------------------|

Guitar 2 (Me and some guys from...)
e|--2~--|--0~--|--2~--|--0~--|
B|--3~--|--2~--|--3~--|--2~--|
G|--2~--|--2~--|--2~--|--2~--|
D|--0~--|--2~--|--0~--|--2~--|
A|------|--0~--|------|--0~--|
E|------|------|------|------|


Pre Chorus (When I look back now...)
Guitar 1
e|----------------------------------------------------------------------|
B|--3--3-3--3-3-3-3--2--2-2--2-2-2-2------------------------------------|
G|--4--4-4--4-4-4-4--2--2-2--2-2-2-2--7--7-7--7-7-7-7-------------------|
D|--4--4-4--4-4-4-4--2--2-2--2-2-2-2--7--7-7--7-7-7-7--5--5-5--5-5-7-7--|
A|--2--2-2--2-2-2-2--0--0-0--0-0-0-0--5--5-5--5-5-5-5--5--5-5--5-5-7-7--|
E|-----------------------------------------------------3--3-3--3-3-5-5--|

Guitar 2
e|------------------------------------------2-2--------------3-3--------|
B|-------3-3---------------2-2------------3-----3---3------3-----3------|
G|-----4-----4---4-------2-----2---2----2---------2------0--------------|
D|---4---------4-------2---------2----0------------------------------2--|
A|-2-----------------0---------------------------------------------0----|
E|-----------------------------------------------------3----------------|


Chorus
Guitar 1
e|---------------------------------------------------------------------|
B|---------------------------------------------------------------------|
G|-7-7-7-7-7-7-7-7--7-7-7-7-7-7-7-7------------------------------------|
D|-7-7-7-7-7-7-7-7--7-7-7-7-7-7-7-7--7-7-7-7-7-7-7-7--7-7-7-7-7-7-7-7--|
A|-5-5-5-5-5-5-5-5--5-5-5-5-5-5-5-5--7-7-7-7-7-7-7-7--7-7-7-7-7-7-7-7--|
E|-----------------------------------5-5-5-5-5-5-5-5--5-5-5-5-5-5-5-5--|

Guitar 2
e|-0-----2-----3-------2-----0----2------------------------------------|
B|---3-----3-----3-------3-----------0------2-----3------2-----0---2---|
G|-----2-----2-------2-----2---2-------2------2-----2------2-----------|
D|----------------------------------------------2------2-----2---2-----|
A|----------------------------------------2----------------------------|
E|---------------------------------------------------------------------|


Bridge (yeah we were killing time...)
e|------------------------------------------------------|
B|------------------------------------------------------|
G|--------------3---3-3---3--5---5-5---5--3---3-3---3---|
D|-3---3-3---3--3---3-3---3--5---5-5---5--3---3-3---3---|
A|-3---3-3---3--1---1-1---1--3---3-3---3--1---1-1---1---|
E|-1---1-1---1------------------------------------------|

e|------------------------------------------------------|
B|------------------------------------------------------|
G|--------------3---3-3---3--5---5-5---5--5---5-5---5---|
D|-3---3-3---3--3---3-3---3--5---5-5---5--5---5-5---5---|
A|-3---3-3---3--1---1-1---1--3---3-3---3--3---3-3---3---|
E|-1---1-1---1------------------------------------------|


2nd Bridge
Guitar 1
e|---------------------------------------------------------------------|
B|---------------------------------------------------------------------|
G|-7~------------------------------------------------------------------|
D|-7~--------------------------------7~--------------------------------|
A|-5~--------------------------------7~--------------------------------|
E|-----------------------------------5~--------------------------------|

e|-0-----2-----3-------2-----0----2------------------------------------|
B|---3-----3-----3-------3-----------0------2-----3------2-----0---2---|
G|-----2-----2-------2-----2---2-------2------2-----2------2-----------|
D|----------------------------------------------2------2-----2---2-----|
A|----------------------------------------2----------------------------|
E|---------------------------------------------------------------------|


Outro Solo
e|-------------------------------------------------------------------------|
B|-------------------5/7-----7--75----(5)----(5)----(5)--7^--7---7^---(7)-|
G|-7------(7)----(7)-------------------------------------------------------|
D|-------------------------------------------------------------------------|
A|-------------------------------------------------------------------------|
E|-------------------------------------------------------------------------|

e|----------------------------------------------10-10-----10----10---(10)--|
B|-10----10-(10)--------10----10----(10)----12-----------------------------|
G|-------------------------------------------------------------------------|
D|-------------------------------------------------------------------------|
A|-------------------------------------------------------------------------|
E|-------------------------------------------------------------------------|

e|-12^-12^-12^-12--(12)--------(12)-----14^------14^-(14)-----14-(14)--|
B|---------------------------------------------------------------------|
G|---------------------------------------------------------------------|
D|---------------------------------------------------------------------|
A|---------------------------------------------------------------------|
E|---------------------------------------------------------------------|

e|-14---14^--14-14-----14/12-12-(12)----12------(12)-12-------12-14-12/10--|
B|-------------------------------------------------------------------------|
G|-------------------------------------------------------------------------|
D|-------------------------------------------------------------------------|
A|-------------------------------------------------------------------------|
E|-------------------------------------------------------------------------|

e|---------------------14---14------14----14/12----1214-12----12---1214--|
B|-15-----15-(15)---15-----------------------------------------------------|
G|-------------------------------------------------------------------------|
D|-------------------------------------------------------------------------|
A|-------------------------------------------------------------------------|
E|-------------------------------------------------------------------------|

e|-12----12---1214-12/10---10---|
B|-------------------------------|
G|-------------------------------|
D|-------------------------------|
A|-------------------------------|
E|-------------------------------|


Текст, аккорды и табулатура для песни "Summer Of 69", исполняет "Adams Bryan".
Используемые в песне аккорды можно найти в разделе Как брать аккорды. Аккорды для шестиструнной гитары. Другие песни можно найти на нашем сайте, воспользовавшись алфавитным указателем вверху страницы.


Слушать онлайн Bryan Adams - Summer Of 69


UltramixxBryan Adams - Summer Of 69 на Яндекс.Музыке


 
Ошибка в тексте? Выделите ошибку и нажмите Ctrl+Enter